ISO-10303-21;
HEADER;
FILE_DESCRIPTION (( 'STEP AP203' ),
    '1' );
FILE_NAME ('ZU429902.STEP',
    '2022-04-21T20:59:20',
    ( '' ),
    ( '' ),
    'SwSTEP 2.0',
    'SolidWorks 2020',
    '' );
FILE_SCHEMA (( 'CONFIG_CONTROL_DESIGN' ));
ENDSEC;

DATA;
#1 = PERSON_AND_ORGANIZATION ( #60, #142 ) ;
#2 = LINE ( 'NONE', #74, #187 ) ;
#3 = PERSON_AND_ORGANIZATION ( #60, #142 ) ;
#4 = ORIENTED_EDGE ( 'NONE', *, *, #216, .F. ) ;
#5 = COORDINATED_UNIVERSAL_TIME_OFFSET ( 6, 0, .BEHIND. ) ;
#6 = ORIENTED_EDGE ( 'NONE', *, *, #56, .T. ) ;
#7 = APPROVAL_DATE_TIME ( #155, #233 ) ;
#8 = DIRECTION ( 'NONE',  ( -0.000000000000000000, -0.000000000000000000, -1.000000000000000000 ) ) ;
#9 = ADVANCED_FACE ( 'NONE', ( #179 ), #226, .T. ) ;
#10 = CARTESIAN_POINT ( 'NONE',  ( 0.000000000000000000, 1.875000000000000000, 0.000000000000000000 ) ) ;
#11 = CARTESIAN_POINT ( 'NONE',  ( 3.000000000000000444, 1.875000000000000000, 0.1250000000000000000 ) ) ;
#12 = CC_DESIGN_PERSON_AND_ORGANIZATION_ASSIGNMENT ( #1, #134, ( #51 ) ) ;
#13 = PERSON_AND_ORGANIZATION ( #60, #142 ) ;
#14 = LINE ( 'NONE', #48, #182 ) ;
#15 =( NAMED_UNIT ( * ) PLANE_ANGLE_UNIT ( ) SI_UNIT ( $, .RADIAN. ) );
#16 = PERSON_AND_ORGANIZATION_ROLE ( 'creator' ) ;
#17 = ORIENTED_EDGE ( 'NONE', *, *, #157, .F. ) ;
#18 = VERTEX_POINT ( 'NONE', #115 ) ;
#19 = CARTESIAN_POINT ( 'NONE',  ( 3.000000000000000444, 1.875000000000000000, 0.1250000000000000000 ) ) ;
#20 = EDGE_CURVE ( 'NONE', #70, #206, #173, .T. ) ;
#21 = PLANE ( 'NONE',  #35 ) ;
#22 = SECURITY_CLASSIFICATION_LEVEL ( 'unclassified' ) ;
#23 = DIRECTION ( 'NONE',  ( 0.000000000000000000, 0.000000000000000000, 1.000000000000000000 ) ) ;
#24 = ORIENTED_EDGE ( 'NONE', *, *, #157, .T. ) ;
#25 = LINE ( 'NONE', #93, #125 ) ;
#26 = PLANE ( 'NONE',  #87 ) ;
#27 = VECTOR ( 'NONE', #57, 39.37007874015748143 ) ;
#28 = FACE_OUTER_BOUND ( 'NONE', #52, .T. ) ;
#29 = LOCAL_TIME ( 15, 59, 20.00000000000000000, #219 ) ;
#30 = CARTESIAN_POINT ( 'NONE',  ( 0.000000000000000000, 0.000000000000000000, 0.000000000000000000 ) ) ;
#31 = EDGE_CURVE ( 'NONE', #70, #158, #130, .T. ) ;
#32 = UNCERTAINTY_MEASURE_WITH_UNIT (LENGTH_MEASURE( 1.000000000000000082E-05 ), #196, 'distance_accuracy_value', 'NONE');
#33 = ORIENTED_EDGE ( 'NONE', *, *, #216, .T. ) ;
#34 = PRODUCT_RELATED_PRODUCT_CATEGORY ( 'detail', '', ( #106 ) ) ;
#35 = AXIS2_PLACEMENT_3D ( 'NONE', #205, #191, #23 ) ;
#36 = APPROVAL_PERSON_ORGANIZATION ( #37, #199, #186 ) ;
#37 = PERSON_AND_ORGANIZATION ( #60, #142 ) ;
#38 = PERSON_AND_ORGANIZATION_ROLE ( 'classification_officer' ) ;
#39 = CARTESIAN_POINT ( 'NONE',  ( 0.000000000000000000, 1.875000000000000000, 0.1250000000000000000 ) ) ;
#40 = DIRECTION ( 'NONE',  ( 1.000000000000000000, 0.000000000000000000, 0.000000000000000000 ) ) ;
#41 = ORIENTED_EDGE ( 'NONE', *, *, #99, .T. ) ;
#42 = ADVANCED_FACE ( 'NONE', ( #80 ), #175, .F. ) ;
#43 = PERSON_AND_ORGANIZATION ( #60, #142 ) ;
#44 = ORIENTED_EDGE ( 'NONE', *, *, #31, .F. ) ;
#45 = DATE_AND_TIME ( #73, #121 ) ;
#46 = DIRECTION ( 'NONE',  ( 0.000000000000000000, -1.000000000000000000, 0.000000000000000000 ) ) ;
#47 = DIRECTION ( 'NONE',  ( 1.000000000000000000, 0.000000000000000000, 0.000000000000000000 ) ) ;
#48 = CARTESIAN_POINT ( 'NONE',  ( 0.000000000000000000, 0.000000000000000000, 0.1250000000000000000 ) ) ;
#49 =( LENGTH_UNIT ( ) NAMED_UNIT ( * ) SI_UNIT ( $, .METRE. ) );
#50 = CARTESIAN_POINT ( 'NONE',  ( 0.000000000000000000, 0.000000000000000000, 0.1250000000000000000 ) ) ;
#51 = PRODUCT_DEFINITION_FORMATION_WITH_SPECIFIED_SOURCE ( 'ANY', '', #106, .NOT_KNOWN. ) ;
#52 = EDGE_LOOP ( 'NONE', ( #88, #62, #4, #156 ) ) ;
#53 = CC_DESIGN_PERSON_AND_ORGANIZATION_ASSIGNMENT ( #3, #190, ( #51 ) ) ;
#54 = DATE_AND_TIME ( #170, #111 ) ;
#55 = APPROVAL_ROLE ( '' ) ;
#56 = EDGE_CURVE ( 'NONE', #206, #95, #117, .T. ) ;
#57 = DIRECTION ( 'NONE',  ( 0.000000000000000000, 1.000000000000000000, 0.000000000000000000 ) ) ;
#58 = DIRECTION ( 'NONE',  ( -1.000000000000000000, -0.000000000000000000, -0.000000000000000000 ) ) ;
#59 = DIRECTION ( 'NONE',  ( -0.000000000000000000, -0.000000000000000000, -1.000000000000000000 ) ) ;
#60 = PERSON ( 'UNSPECIFIED', 'UNSPECIFIED', 'UNSPECIFIED', ('UNSPECIFIED'), ('UNSPECIFIED'), ('UNSPECIFIED') ) ;
#61 = DIRECTION ( 'NONE',  ( -0.000000000000000000, -1.000000000000000000, -0.000000000000000000 ) ) ;
#62 = ORIENTED_EDGE ( 'NONE', *, *, #185, .F. ) ;
#63 = LINE ( 'NONE', #159, #207 ) ;
#64 = CARTESIAN_POINT ( 'NONE',  ( 0.000000000000000000, 0.000000000000000000, 0.000000000000000000 ) ) ;
#65 = VECTOR ( 'NONE', #195, 39.37007874015748143 ) ;
#66 = CARTESIAN_POINT ( 'NONE',  ( 0.000000000000000000, 0.000000000000000000, 0.1250000000000000000 ) ) ;
#67 = SECURITY_CLASSIFICATION ( '', '', #22 ) ;
#68 = EDGE_CURVE ( 'NONE', #158, #95, #25, .T. ) ;
#69 = PERSON_AND_ORGANIZATION ( #60, #142 ) ;
#70 = VERTEX_POINT ( 'NONE', #188 ) ;
#71 = CLOSED_SHELL ( 'NONE', ( #176, #212, #118, #42, #132, #9 ) ) ;
#72 = DATE_TIME_ROLE ( 'creation_date' ) ;
#73 = CALENDAR_DATE ( 2022, 21, 4 ) ;
#74 = CARTESIAN_POINT ( 'NONE',  ( 0.000000000000000000, 0.000000000000000000, 0.000000000000000000 ) ) ;
#75 = VECTOR ( 'NONE', #58, 39.37007874015748143 ) ;
#76 = CARTESIAN_POINT ( 'NONE',  ( 3.000000000000000444, 0.000000000000000000, 0.1250000000000000000 ) ) ;
#77 = APPROVAL ( #177, 'UNSPECIFIED' ) ;
#78 = CALENDAR_DATE ( 2022, 21, 4 ) ;
#79 = DIRECTION ( 'NONE',  ( 0.000000000000000000, 1.000000000000000000, 0.000000000000000000 ) ) ;
#80 = FACE_OUTER_BOUND ( 'NONE', #154, .T. ) ;
#81 = DIRECTION ( 'NONE',  ( 0.000000000000000000, 0.000000000000000000, -1.000000000000000000 ) ) ;
#82 = MANIFOLD_SOLID_BREP ( 'BODY', #71 ) ;
#83 = VECTOR ( 'NONE', #166, 39.37007874015748143 ) ;
#84 = PERSON_AND_ORGANIZATION_ROLE ( 'design_owner' ) ;
#85 = DIRECTION ( 'NONE',  ( -1.000000000000000000, -0.000000000000000000, -0.000000000000000000 ) ) ;
#86 = EDGE_CURVE ( 'NONE', #174, #18, #2, .T. ) ;
#87 = AXIS2_PLACEMENT_3D ( 'NONE', #50, #102, #183 ) ;
#88 = ORIENTED_EDGE ( 'NONE', *, *, #86, .T. ) ;
#89 = VECTOR ( 'NONE', #59, 39.37007874015748143 ) ;
#90 = EDGE_LOOP ( 'NONE', ( #33, #98, #198, #41 ) ) ;
#91 = EDGE_LOOP ( 'NONE', ( #24, #44, #200, #192 ) ) ;
#92 = APPROVAL_STATUS ( 'not_yet_approved' ) ;
#93 = CARTESIAN_POINT ( 'NONE',  ( 3.000000000000000444, 0.000000000000000000, 0.000000000000000000 ) ) ;
#94 = PRODUCT_DEFINITION ( 'UNKNOWN', '', #51, #107 ) ;
#95 = VERTEX_POINT ( 'NONE', #135 ) ;
#96 = FACE_OUTER_BOUND ( 'NONE', #90, .T. ) ;
#97 = ORIENTED_EDGE ( 'NONE', *, *, #31, .T. ) ;
#98 = ORIENTED_EDGE ( 'NONE', *, *, #113, .T. ) ;
#99 = EDGE_CURVE ( 'NONE', #206, #178, #153, .T. ) ;
#100 = CARTESIAN_POINT ( 'NONE',  ( 0.000000000000000000, 1.875000000000000000, 0.1250000000000000000 ) ) ;
#101 = PLANE ( 'NONE',  #148 ) ;
#102 = DIRECTION ( 'NONE',  ( 1.000000000000000000, 0.000000000000000000, 0.000000000000000000 ) ) ;
#103 = CARTESIAN_POINT ( 'NONE',  ( 0.000000000000000000, 0.000000000000000000, 0.1250000000000000000 ) ) ;
#104 = AXIS2_PLACEMENT_3D ( 'NONE', #231, #162, #230 ) ;
#105 = CARTESIAN_POINT ( 'NONE',  ( 3.000000000000000444, 0.000000000000000000, 0.000000000000000000 ) ) ;
#106 = PRODUCT ( 'ZU429902', 'ZU429902', '', ( #120 ) ) ;
#107 = DESIGN_CONTEXT ( 'detailed design', #239, 'design' ) ;
#108 = ORIENTED_EDGE ( 'NONE', *, *, #86, .F. ) ;
#109 = CC_DESIGN_APPROVAL ( #233, ( #51 ) ) ;
#110 = DATE_AND_TIME ( #215, #222 ) ;
#111 = LOCAL_TIME ( 15, 59, 20.00000000000000000, #217 ) ;
#112 = ORIENTED_EDGE ( 'NONE', *, *, #68, .T. ) ;
#113 = EDGE_CURVE ( 'NONE', #227, #70, #131, .T. ) ;
#114 = EDGE_LOOP ( 'NONE', ( #108, #116, #209, #17 ) ) ;
#115 = CARTESIAN_POINT ( 'NONE',  ( 0.000000000000000000, 0.000000000000000000, 0.000000000000000000 ) ) ;
#116 = ORIENTED_EDGE ( 'NONE', *, *, #203, .F. ) ;
#117 = LINE ( 'NONE', #19, #89 ) ;
#118 = ADVANCED_FACE ( 'NONE', ( #133 ), #21, .F. ) ;
#119 = CARTESIAN_POINT ( 'NONE',  ( 0.000000000000000000, 1.875000000000000000, 0.000000000000000000 ) ) ;
#120 = MECHANICAL_CONTEXT ( 'NONE', #228, 'mechanical' ) ;
#121 = LOCAL_TIME ( 15, 59, 20.00000000000000000, #5 ) ;
#122 = CC_DESIGN_DATE_AND_TIME_ASSIGNMENT ( #45, #208, ( #67 ) ) ;
#123 = DIRECTION ( 'NONE',  ( -0.000000000000000000, -0.000000000000000000, -1.000000000000000000 ) ) ;
#124 = CARTESIAN_POINT ( 'NONE',  ( 0.000000000000000000, 1.875000000000000000, 0.1250000000000000000 ) ) ;
#125 = VECTOR ( 'NONE', #79, 39.37007874015748143 ) ;
#126 = PERSON_AND_ORGANIZATION ( #60, #142 ) ;
#127 = ORIENTED_EDGE ( 'NONE', *, *, #56, .F. ) ;
#128 = APPROVAL_DATE_TIME ( #110, #199 ) ;
#129 = DATE_AND_TIME ( #78, #145 ) ;
#130 = LINE ( 'NONE', #76, #229 ) ;
#131 = LINE ( 'NONE', #202, #140 ) ;
#132 = ADVANCED_FACE ( 'NONE', ( #96 ), #101, .F. ) ;
#133 = FACE_OUTER_BOUND ( 'NONE', #151, .T. ) ;
#134 = PERSON_AND_ORGANIZATION_ROLE ( 'design_supplier' ) ;
#135 = CARTESIAN_POINT ( 'NONE',  ( 3.000000000000000444, 1.875000000000000000, 0.000000000000000000 ) ) ;
#136 = COORDINATED_UNIVERSAL_TIME_OFFSET ( 6, 0, .BEHIND. ) ;
#137 = ORIENTED_EDGE ( 'NONE', *, *, #139, .F. ) ;
#138 = DIRECTION ( 'NONE',  ( 0.000000000000000000, 0.000000000000000000, 1.000000000000000000 ) ) ;
#139 = EDGE_CURVE ( 'NONE', #178, #174, #141, .T. ) ;
#140 = VECTOR ( 'NONE', #40, 39.37007874015748143 ) ;
#141 = LINE ( 'NONE', #124, #65 ) ;
#142 = ORGANIZATION ( 'UNSPECIFIED', 'UNSPECIFIED', '' ) ;
#143 = LINE ( 'NONE', #30, #163 ) ;
#144 =( NAMED_UNIT ( * ) SI_UNIT ( $, .STERADIAN. ) SOLID_ANGLE_UNIT ( ) );
#145 = LOCAL_TIME ( 15, 59, 20.00000000000000000, #136 ) ;
#146 = APPLICATION_PROTOCOL_DEFINITION ( 'international standard', 'config_control_design', 1994, #239 ) ;
#147 = ORIENTED_EDGE ( 'NONE', *, *, #99, .F. ) ;
#148 = AXIS2_PLACEMENT_3D ( 'NONE', #100, #81, #197 ) ;
#149 = ADVANCED_BREP_SHAPE_REPRESENTATION ( 'ZU429902', ( #82, #223 ), #171 ) ;
#150 = APPROVAL_STATUS ( 'not_yet_approved' ) ;
#151 = EDGE_LOOP ( 'NONE', ( #112, #127, #168, #97 ) ) ;
#152 = PERSON_AND_ORGANIZATION ( #60, #142 ) ;
#153 = LINE ( 'NONE', #221, #75 ) ;
#154 = EDGE_LOOP ( 'NONE', ( #235, #137, #147, #6 ) ) ;
#155 = DATE_AND_TIME ( #204, #29 ) ;
#156 = ORIENTED_EDGE ( 'NONE', *, *, #139, .T. ) ;
#157 = EDGE_CURVE ( 'NONE', #18, #158, #143, .T. ) ;
#158 = VERTEX_POINT ( 'NONE', #105 ) ;
#159 = CARTESIAN_POINT ( 'NONE',  ( 0.000000000000000000, 1.875000000000000000, 0.000000000000000000 ) ) ;
#160 = APPLICATION_PROTOCOL_DEFINITION ( 'international standard', 'config_control_design', 1994, #228 ) ;
#161 = DIMENSIONAL_EXPONENTS ( 1.000000000000000000, 0.000000000000000000, 0.000000000000000000, 0.000000000000000000, 0.000000000000000000, 0.000000000000000000, 0.000000000000000000 ) ;
#162 = DIRECTION ( 'NONE',  ( 0.000000000000000000, 1.000000000000000000, 0.000000000000000000 ) ) ;
#163 = VECTOR ( 'NONE', #211, 39.37007874015748143 ) ;
#164 = LINE ( 'NONE', #66, #83 ) ;
#165 = APPROVAL_PERSON_ORGANIZATION ( #43, #77, #55 ) ;
#166 = DIRECTION ( 'NONE',  ( -0.000000000000000000, -1.000000000000000000, -0.000000000000000000 ) ) ;
#167 = CC_DESIGN_PERSON_AND_ORGANIZATION_ASSIGNMENT ( #69, #16, ( #94 ) ) ;
#168 = ORIENTED_EDGE ( 'NONE', *, *, #20, .F. ) ;
#169 = CC_DESIGN_PERSON_AND_ORGANIZATION_ASSIGNMENT ( #152, #38, ( #67 ) ) ;
#170 = CALENDAR_DATE ( 2022, 21, 4 ) ;
#171 =( GEOMETRIC_REPRESENTATION_CONTEXT ( 3 ) GLOBAL_UNCERTAINTY_ASSIGNED_CONTEXT ( ( #32 ) ) GLOBAL_UNIT_ASSIGNED_CONTEXT ( ( #196, #15, #144 ) ) REPRESENTATION_CONTEXT ( 'NONE', 'WORKASPACE' ) );
#172 = SHAPE_DEFINITION_REPRESENTATION ( #232, #149 ) ;
#173 = LINE ( 'NONE', #189, #27 ) ;
#174 = VERTEX_POINT ( 'NONE', #119 ) ;
#175 = PLANE ( 'NONE',  #194 ) ;
#176 = ADVANCED_FACE ( 'NONE', ( #28 ), #26, .F. ) ;
#177 = APPROVAL_STATUS ( 'not_yet_approved' ) ;
#178 = VERTEX_POINT ( 'NONE', #181 ) ;
#179 = FACE_OUTER_BOUND ( 'NONE', #114, .T. ) ;
#180 = LENGTH_MEASURE_WITH_UNIT ( LENGTH_MEASURE( 0.02539999999999999897 ), #49 );
#181 = CARTESIAN_POINT ( 'NONE',  ( 0.000000000000000000, 1.875000000000000000, 0.1250000000000000000 ) ) ;
#182 = VECTOR ( 'NONE', #123, 39.37007874015748143 ) ;
#183 = DIRECTION ( 'NONE',  ( 0.000000000000000000, 0.000000000000000000, -1.000000000000000000 ) ) ;
#184 = FACE_OUTER_BOUND ( 'NONE', #91, .T. ) ;
#185 = EDGE_CURVE ( 'NONE', #227, #18, #14, .T. ) ;
#186 = APPROVAL_ROLE ( '' ) ;
#187 = VECTOR ( 'NONE', #61, 39.37007874015748143 ) ;
#188 = CARTESIAN_POINT ( 'NONE',  ( 3.000000000000000444, 0.000000000000000000, 0.1250000000000000000 ) ) ;
#189 = CARTESIAN_POINT ( 'NONE',  ( 3.000000000000000444, 0.000000000000000000, 0.1250000000000000000 ) ) ;
#190 = PERSON_AND_ORGANIZATION_ROLE ( 'creator' ) ;
#191 = DIRECTION ( 'NONE',  ( -1.000000000000000000, 0.000000000000000000, 0.000000000000000000 ) ) ;
#192 = ORIENTED_EDGE ( 'NONE', *, *, #185, .T. ) ;
#193 = DIRECTION ( 'NONE',  ( 0.000000000000000000, 0.000000000000000000, -1.000000000000000000 ) ) ;
#194 = AXIS2_PLACEMENT_3D ( 'NONE', #39, #46, #224 ) ;
#195 = DIRECTION ( 'NONE',  ( -0.000000000000000000, -0.000000000000000000, -1.000000000000000000 ) ) ;
#196 =( CONVERSION_BASED_UNIT ( 'INCH', #180 ) LENGTH_UNIT ( ) NAMED_UNIT ( #161 ) );
#197 = DIRECTION ( 'NONE',  ( -1.000000000000000000, 0.000000000000000000, -0.000000000000000000 ) ) ;
#198 = ORIENTED_EDGE ( 'NONE', *, *, #20, .T. ) ;
#199 = APPROVAL ( #92, 'UNSPECIFIED' ) ;
#200 = ORIENTED_EDGE ( 'NONE', *, *, #113, .F. ) ;
#201 = CC_DESIGN_APPROVAL ( #77, ( #67 ) ) ;
#202 = CARTESIAN_POINT ( 'NONE',  ( 0.000000000000000000, 0.000000000000000000, 0.1250000000000000000 ) ) ;
#203 = EDGE_CURVE ( 'NONE', #95, #174, #63, .T. ) ;
#204 = CALENDAR_DATE ( 2022, 21, 4 ) ;
#205 = CARTESIAN_POINT ( 'NONE',  ( 3.000000000000000444, 0.000000000000000000, 0.1250000000000000000 ) ) ;
#206 = VERTEX_POINT ( 'NONE', #11 ) ;
#207 = VECTOR ( 'NONE', #85, 39.37007874015748143 ) ;
#208 = DATE_TIME_ROLE ( 'classification_date' ) ;
#209 = ORIENTED_EDGE ( 'NONE', *, *, #68, .F. ) ;
#210 = CC_DESIGN_DATE_AND_TIME_ASSIGNMENT ( #54, #72, ( #94 ) ) ;
#211 = DIRECTION ( 'NONE',  ( 1.000000000000000000, 0.000000000000000000, 0.000000000000000000 ) ) ;
#212 = ADVANCED_FACE ( 'NONE', ( #184 ), #213, .F. ) ;
#213 = PLANE ( 'NONE',  #104 ) ;
#214 = CC_DESIGN_APPROVAL ( #199, ( #94 ) ) ;
#215 = CALENDAR_DATE ( 2022, 21, 4 ) ;
#216 = EDGE_CURVE ( 'NONE', #178, #227, #164, .T. ) ;
#217 = COORDINATED_UNIVERSAL_TIME_OFFSET ( 6, 0, .BEHIND. ) ;
#218 = CC_DESIGN_SECURITY_CLASSIFICATION ( #67, ( #51 ) ) ;
#219 = COORDINATED_UNIVERSAL_TIME_OFFSET ( 6, 0, .BEHIND. ) ;
#220 = DIRECTION ( 'NONE',  ( -1.000000000000000000, 0.000000000000000000, -0.000000000000000000 ) ) ;
#221 = CARTESIAN_POINT ( 'NONE',  ( 0.000000000000000000, 1.875000000000000000, 0.1250000000000000000 ) ) ;
#222 = LOCAL_TIME ( 15, 59, 20.00000000000000000, #236 ) ;
#223 = AXIS2_PLACEMENT_3D ( 'NONE', #64, #138, #47 ) ;
#224 = DIRECTION ( 'NONE',  ( 0.000000000000000000, -0.000000000000000000, -1.000000000000000000 ) ) ;
#225 = APPROVAL_ROLE ( '' ) ;
#226 = PLANE ( 'NONE',  #234 ) ;
#227 = VERTEX_POINT ( 'NONE', #103 ) ;
#228 = APPLICATION_CONTEXT ( 'configuration controlled 3d designs of mechanical parts and assemblies' ) ;
#229 = VECTOR ( 'NONE', #8, 39.37007874015748143 ) ;
#230 = DIRECTION ( 'NONE',  ( 0.000000000000000000, -0.000000000000000000, 1.000000000000000000 ) ) ;
#231 = CARTESIAN_POINT ( 'NONE',  ( 0.000000000000000000, 0.000000000000000000, 0.1250000000000000000 ) ) ;
#232 = PRODUCT_DEFINITION_SHAPE ( 'NONE', 'NONE',  #94 ) ;
#233 = APPROVAL ( #150, 'UNSPECIFIED' ) ;
#234 = AXIS2_PLACEMENT_3D ( 'NONE', #10, #193, #220 ) ;
#235 = ORIENTED_EDGE ( 'NONE', *, *, #203, .T. ) ;
#236 = COORDINATED_UNIVERSAL_TIME_OFFSET ( 6, 0, .BEHIND. ) ;
#237 = CC_DESIGN_PERSON_AND_ORGANIZATION_ASSIGNMENT ( #13, #84, ( #106 ) ) ;
#238 = APPROVAL_PERSON_ORGANIZATION ( #126, #233, #225 ) ;
#239 = APPLICATION_CONTEXT ( 'configuration controlled 3d designs of mechanical parts and assemblies' ) ;
#240 = APPROVAL_DATE_TIME ( #129, #77 ) ;
ENDSEC;
END-ISO-10303-21;
