ISO-10303-21;
HEADER;
FILE_DESCRIPTION (( 'STEP AP203' ),
    '1' );
FILE_NAME ('ZU0805-A18.STEP',
    '2022-04-26T20:56:25',
    ( '' ),
    ( '' ),
    'SwSTEP 2.0',
    'SolidWorks 2020',
    '' );
FILE_SCHEMA (( 'CONFIG_CONTROL_DESIGN' ));
ENDSEC;

DATA;
#1 = CC_DESIGN_DATE_AND_TIME_ASSIGNMENT ( #242, #145, ( #10 ) ) ;
#2 = DIRECTION ( 'NONE',  ( -0.000000000000000000, -0.000000000000000000, -1.000000000000000000 ) ) ;
#3 = AXIS2_PLACEMENT_3D ( 'NONE', #316, #96, #166 ) ;
#4 = CARTESIAN_POINT ( 'NONE',  ( 0.000000000000000000, 0.8661417322834645827, 0.1181102362204724532 ) ) ;
#5 = EDGE_LOOP ( 'NONE', ( #252, #363 ) ) ;
#6 = CYLINDRICAL_SURFACE ( 'NONE', #3, 0.09842519685039372024 ) ;
#7 =( NAMED_UNIT ( * ) PLANE_ANGLE_UNIT ( ) SI_UNIT ( $, .RADIAN. ) );
#8 = ORIENTED_EDGE ( 'NONE', *, *, #365, .T. ) ;
#9 = CIRCLE ( 'NONE', #138, 0.09842519685039372024 ) ;
#10 = SECURITY_CLASSIFICATION ( '', '', #299 ) ;
#11 = CC_DESIGN_APPROVAL ( #214, ( #80 ) ) ;
#12 = ORIENTED_EDGE ( 'NONE', *, *, #78, .F. ) ;
#13 = CARTESIAN_POINT ( 'NONE',  ( 0.000000000000000000, 0.8661417322834645827, 0.1181102362204724532 ) ) ;
#14 = ORIENTED_EDGE ( 'NONE', *, *, #194, .T. ) ;
#15 = LINE ( 'NONE', #250, #28 ) ;
#16 = APPROVAL ( #48, 'UNSPECIFIED' ) ;
#17 = ORIENTED_EDGE ( 'NONE', *, *, #355, .F. ) ;
#18 = PERSON_AND_ORGANIZATION ( #380, #19 ) ;
#19 = ORGANIZATION ( 'UNSPECIFIED', 'UNSPECIFIED', '' ) ;
#20 = EDGE_LOOP ( 'NONE', ( #256, #17, #74, #136 ) ) ;
#21 = PERSON_AND_ORGANIZATION ( #380, #19 ) ;
#22 = DIRECTION ( 'NONE',  ( 0.000000000000000000, 0.000000000000000000, 1.000000000000000000 ) ) ;
#23 = CC_DESIGN_PERSON_AND_ORGANIZATION_ASSIGNMENT ( #381, #233, ( #58 ) ) ;
#24 = APPROVAL_DATE_TIME ( #319, #313 ) ;
#25 = LINE ( 'NONE', #231, #332 ) ;
#26 = PERSON_AND_ORGANIZATION_ROLE ( 'creator' ) ;
#27 = AXIS2_PLACEMENT_3D ( 'NONE', #243, #261, #234 ) ;
#28 = VECTOR ( 'NONE', #309, 39.37007874015748143 ) ;
#29 = DIRECTION ( 'NONE',  ( -0.000000000000000000, -0.000000000000000000, 1.000000000000000000 ) ) ;
#30 = EDGE_CURVE ( 'NONE', #160, #128, #118, .T. ) ;
#31 = CARTESIAN_POINT ( 'NONE',  ( 0.000000000000000000, 0.000000000000000000, 0.000000000000000000 ) ) ;
#32 = LINE ( 'NONE', #200, #376 ) ;
#33 = FACE_OUTER_BOUND ( 'NONE', #20, .T. ) ;
#34 = VECTOR ( 'NONE', #331, 39.37007874015748143 ) ;
#35 = CC_DESIGN_APPROVAL ( #313, ( #146 ) ) ;
#36 = CARTESIAN_POINT ( 'NONE',  ( 1.318897637795275468, 0.4330708661417322913, 0.1181102362204724532 ) ) ;
#37 = FACE_BOUND ( 'NONE', #134, .T. ) ;
#38 = AXIS2_PLACEMENT_3D ( 'NONE', #267, #207, #121 ) ;
#39 = CARTESIAN_POINT ( 'NONE',  ( 0.000000000000000000, 0.000000000000000000, 0.1181102362204724532 ) ) ;
#40 = CARTESIAN_POINT ( 'NONE',  ( 1.732283464566929165, 0.000000000000000000, 0.1181102362204724532 ) ) ;
#41 = VERTEX_POINT ( 'NONE', #174 ) ;
#42 = ORIENTED_EDGE ( 'NONE', *, *, #64, .T. ) ;
#43 = AXIS2_PLACEMENT_3D ( 'NONE', #4, #304, #275 ) ;
#44 = LINE ( 'NONE', #362, #247 ) ;
#45 = DIRECTION ( 'NONE',  ( -0.000000000000000000, -0.000000000000000000, 1.000000000000000000 ) ) ;
#46 = ORIENTED_EDGE ( 'NONE', *, *, #84, .T. ) ;
#47 = EDGE_LOOP ( 'NONE', ( #8, #184, #70, #229 ) ) ;
#48 = APPROVAL_STATUS ( 'not_yet_approved' ) ;
#49 = APPROVAL_PERSON_ORGANIZATION ( #239, #313, #176 ) ;
#50 = EDGE_CURVE ( 'NONE', #258, #254, #259, .T. ) ;
#51 = CARTESIAN_POINT ( 'NONE',  ( 0.3149606299212597826, 0.4330708661417322913, 0.1181102362204724532 ) ) ;
#52 = DIMENSIONAL_EXPONENTS ( 1.000000000000000000, 0.000000000000000000, 0.000000000000000000, 0.000000000000000000, 0.000000000000000000, 0.000000000000000000, 0.000000000000000000 ) ;
#53 = EDGE_CURVE ( 'NONE', #191, #128, #9, .T. ) ;
#54 = COORDINATED_UNIVERSAL_TIME_OFFSET ( 6, 0, .BEHIND. ) ;
#55 = CARTESIAN_POINT ( 'NONE',  ( 0.2165354330708660624, 0.4330708661417322913, 0.000000000000000000 ) ) ;
#56 = CC_DESIGN_DATE_AND_TIME_ASSIGNMENT ( #82, #77, ( #146 ) ) ;
#57 = DIRECTION ( 'NONE',  ( 1.000000000000000000, 0.000000000000000000, 0.000000000000000000 ) ) ;
#58 = PRODUCT ( 'ZU0805-A18', 'ZU0805-A18', '', ( #260 ) ) ;
#59 = CARTESIAN_POINT ( 'NONE',  ( 1.515748031496062964, 0.4330708661417322913, 0.1181102362204724532 ) ) ;
#60 = FACE_BOUND ( 'NONE', #5, .T. ) ;
#61 = CIRCLE ( 'NONE', #38, 0.09842519685039372024 ) ;
#62 = ORIENTED_EDGE ( 'NONE', *, *, #218, .F. ) ;
#63 = CYLINDRICAL_SURFACE ( 'NONE', #335, 0.09842519685039372024 ) ;
#64 = EDGE_CURVE ( 'NONE', #343, #160, #235, .T. ) ;
#65 = CARTESIAN_POINT ( 'NONE',  ( 1.732283464566929165, 0.8661417322834645827, 0.1181102362204724532 ) ) ;
#66 = CARTESIAN_POINT ( 'NONE',  ( 1.417322834645669216, 0.4330708661417322913, 0.000000000000000000 ) ) ;
#67 = EDGE_LOOP ( 'NONE', ( #42, #46 ) ) ;
#68 = EDGE_CURVE ( 'NONE', #369, #238, #157, .T. ) ;
#69 = APPLICATION_PROTOCOL_DEFINITION ( 'international standard', 'config_control_design', 1994, #271 ) ;
#70 = ORIENTED_EDGE ( 'NONE', *, *, #137, .T. ) ;
#71 = CC_DESIGN_PERSON_AND_ORGANIZATION_ASSIGNMENT ( #18, #169, ( #80 ) ) ;
#72 = AXIS2_PLACEMENT_3D ( 'NONE', #126, #255, #225 ) ;
#73 = DIRECTION ( 'NONE',  ( -0.000000000000000000, -0.000000000000000000, -1.000000000000000000 ) ) ;
#74 = ORIENTED_EDGE ( 'NONE', *, *, #365, .F. ) ;
#75 = CARTESIAN_POINT ( 'NONE',  ( 1.515748031496062964, 0.4330708661417322913, 0.000000000000000000 ) ) ;
#76 = ORIENTED_EDGE ( 'NONE', *, *, #218, .T. ) ;
#77 = DATE_TIME_ROLE ( 'creation_date' ) ;
#78 = EDGE_CURVE ( 'NONE', #278, #41, #269, .T. ) ;
#79 = CARTESIAN_POINT ( 'NONE',  ( 1.732283464566929165, 0.000000000000000000, 0.000000000000000000 ) ) ;
#80 = PRODUCT_DEFINITION_FORMATION_WITH_SPECIFIED_SOURCE ( 'ANY', '', #58, .NOT_KNOWN. ) ;
#81 = CARTESIAN_POINT ( 'NONE',  ( 1.417322834645669216, 0.4330708661417322913, 0.1181102362204724532 ) ) ;
#82 = DATE_AND_TIME ( #345, #253 ) ;
#83 = CARTESIAN_POINT ( 'NONE',  ( 0.2165354330708660624, 0.4330708661417322913, 0.1181102362204724532 ) ) ;
#84 = EDGE_CURVE ( 'NONE', #160, #343, #282, .T. ) ;
#85 = CARTESIAN_POINT ( 'NONE',  ( 0.000000000000000000, 0.000000000000000000, 0.000000000000000000 ) ) ;
#86 = DIRECTION ( 'NONE',  ( 1.000000000000000000, 0.000000000000000000, 0.000000000000000000 ) ) ;
#87 = APPROVAL_DATE_TIME ( #205, #16 ) ;
#88 = VECTOR ( 'NONE', #141, 39.37007874015748143 ) ;
#89 = DIRECTION ( 'NONE',  ( 0.000000000000000000, 0.000000000000000000, 1.000000000000000000 ) ) ;
#90 = FACE_OUTER_BOUND ( 'NONE', #312, .T. ) ;
#91 = EDGE_CURVE ( 'NONE', #128, #191, #61, .T. ) ;
#92 = DIRECTION ( 'NONE',  ( -1.000000000000000000, 0.000000000000000000, 0.000000000000000000 ) ) ;
#93 = CC_DESIGN_SECURITY_CLASSIFICATION ( #10, ( #80 ) ) ;
#94 = ORIENTED_EDGE ( 'NONE', *, *, #153, .F. ) ;
#95 = CARTESIAN_POINT ( 'NONE',  ( 0.000000000000000000, 0.000000000000000000, 0.000000000000000000 ) ) ;
#96 = DIRECTION ( 'NONE',  ( -0.000000000000000000, -0.000000000000000000, 1.000000000000000000 ) ) ;
#97 = ORIENTED_EDGE ( 'NONE', *, *, #296, .F. ) ;
#98 = AXIS2_PLACEMENT_3D ( 'NONE', #213, #92, #154 ) ;
#99 = VECTOR ( 'NONE', #341, 39.37007874015748143 ) ;
#100 =( CONVERSION_BASED_UNIT ( 'INCH', #257 ) LENGTH_UNIT ( ) NAMED_UNIT ( #52 ) );
#101 = EDGE_CURVE ( 'NONE', #310, #287, #25, .T. ) ;
#102 = ORIENTED_EDGE ( 'NONE', *, *, #370, .T. ) ;
#103 = EDGE_LOOP ( 'NONE', ( #102, #193, #289, #108 ) ) ;
#104 =( NAMED_UNIT ( * ) SI_UNIT ( $, .STERADIAN. ) SOLID_ANGLE_UNIT ( ) );
#105 = ORIENTED_EDGE ( 'NONE', *, *, #50, .F. ) ;
#106 = VECTOR ( 'NONE', #286, 39.37007874015748143 ) ;
#107 = DIRECTION ( 'NONE',  ( 1.000000000000000000, 0.000000000000000000, 0.000000000000000000 ) ) ;
#108 = ORIENTED_EDGE ( 'NONE', *, *, #209, .T. ) ;
#109 = DIRECTION ( 'NONE',  ( 0.000000000000000000, 0.000000000000000000, 1.000000000000000000 ) ) ;
#110 = CARTESIAN_POINT ( 'NONE',  ( 0.3149606299212597826, 0.4330708661417322913, 0.000000000000000000 ) ) ;
#111 = COORDINATED_UNIVERSAL_TIME_OFFSET ( 6, 0, .BEHIND. ) ;
#112 = DIRECTION ( 'NONE',  ( -0.000000000000000000, -0.000000000000000000, 1.000000000000000000 ) ) ;
#113 = VECTOR ( 'NONE', #112, 39.37007874015748143 ) ;
#114 = DIRECTION ( 'NONE',  ( 1.000000000000000000, 0.000000000000000000, 0.000000000000000000 ) ) ;
#115 = LOCAL_TIME ( 15, 56, 25.00000000000000000, #139 ) ;
#116 = CARTESIAN_POINT ( 'NONE',  ( 1.417322834645669216, 0.4330708661417322913, 0.1181102362204724532 ) ) ;
#117 = PERSON_AND_ORGANIZATION ( #380, #19 ) ;
#118 = LINE ( 'NONE', #55, #113 ) ;
#119 = CC_DESIGN_PERSON_AND_ORGANIZATION_ASSIGNMENT ( #21, #374, ( #10 ) ) ;
#120 = ADVANCED_BREP_SHAPE_REPRESENTATION ( 'ZU0805-A18', ( #327, #202 ), #303 ) ;
#121 = DIRECTION ( 'NONE',  ( 1.000000000000000000, 0.000000000000000000, 0.000000000000000000 ) ) ;
#122 = CIRCLE ( 'NONE', #162, 0.09842519685039378963 ) ;
#123 = LINE ( 'NONE', #65, #201 ) ;
#124 = ORIENTED_EDGE ( 'NONE', *, *, #53, .T. ) ;
#125 = DIRECTION ( 'NONE',  ( 1.000000000000000000, 0.000000000000000000, 0.000000000000000000 ) ) ;
#126 = CARTESIAN_POINT ( 'NONE',  ( 0.000000000000000000, 0.8661417322834645827, 0.000000000000000000 ) ) ;
#127 = LINE ( 'NONE', #279, #106 ) ;
#128 = VERTEX_POINT ( 'NONE', #83 ) ;
#129 = VECTOR ( 'NONE', #73, 39.37007874015748143 ) ;
#130 = APPROVAL_PERSON_ORGANIZATION ( #351, #214, #179 ) ;
#131 = EDGE_CURVE ( 'NONE', #223, #221, #122, .T. ) ;
#132 = EDGE_LOOP ( 'NONE', ( #14, #360, #198, #140 ) ) ;
#133 = CARTESIAN_POINT ( 'NONE',  ( 1.732283464566929165, 0.8661417322834645827, 0.1181102362204724532 ) ) ;
#134 = EDGE_LOOP ( 'NONE', ( #216, #94 ) ) ;
#135 = CARTESIAN_POINT ( 'NONE',  ( 0.4133858267716535306, 0.4330708661417322913, 0.000000000000000000 ) ) ;
#136 = ORIENTED_EDGE ( 'NONE', *, *, #161, .T. ) ;
#137 = EDGE_CURVE ( 'NONE', #287, #284, #294, .T. ) ;
#138 = AXIS2_PLACEMENT_3D ( 'NONE', #51, #346, #86 ) ;
#139 = COORDINATED_UNIVERSAL_TIME_OFFSET ( 6, 0, .BEHIND. ) ;
#140 = ORIENTED_EDGE ( 'NONE', *, *, #355, .T. ) ;
#141 = DIRECTION ( 'NONE',  ( 0.000000000000000000, 1.000000000000000000, 0.000000000000000000 ) ) ;
#142 = ADVANCED_FACE ( 'NONE', ( #377 ), #240, .F. ) ;
#143 = DATE_AND_TIME ( #375, #183 ) ;
#144 = CARTESIAN_POINT ( 'NONE',  ( 1.732283464566929165, 0.000000000000000000, 0.1181102362204724532 ) ) ;
#145 = DATE_TIME_ROLE ( 'classification_date' ) ;
#146 = PRODUCT_DEFINITION ( 'UNKNOWN', '', #80, #344 ) ;
#147 = DIRECTION ( 'NONE',  ( 1.000000000000000000, 0.000000000000000000, 0.000000000000000000 ) ) ;
#148 = CARTESIAN_POINT ( 'NONE',  ( 1.417322834645669216, 0.4330708661417322913, 0.000000000000000000 ) ) ;
#149 = AXIS2_PLACEMENT_3D ( 'NONE', #13, #288, #372 ) ;
#150 = DIRECTION ( 'NONE',  ( 1.000000000000000000, 0.000000000000000000, 0.000000000000000000 ) ) ;
#151 = PLANE ( 'NONE',  #98 ) ;
#152 = ORIENTED_EDGE ( 'NONE', *, *, #329, .F. ) ;
#153 = EDGE_CURVE ( 'NONE', #221, #223, #264, .T. ) ;
#154 = DIRECTION ( 'NONE',  ( 0.000000000000000000, 0.000000000000000000, 1.000000000000000000 ) ) ;
#155 = CC_DESIGN_PERSON_AND_ORGANIZATION_ASSIGNMENT ( #297, #262, ( #80 ) ) ;
#156 = CARTESIAN_POINT ( 'NONE',  ( 0.000000000000000000, 0.000000000000000000, 0.1181102362204724532 ) ) ;
#157 = CIRCLE ( 'NONE', #178, 0.09842519685039378963 ) ;
#158 = LINE ( 'NONE', #197, #99 ) ;
#159 = DIRECTION ( 'NONE',  ( -1.000000000000000000, -0.000000000000000000, -0.000000000000000000 ) ) ;
#160 = VERTEX_POINT ( 'NONE', #211 ) ;
#161 = EDGE_CURVE ( 'NONE', #342, #258, #32, .T. ) ;
#162 = AXIS2_PLACEMENT_3D ( 'NONE', #81, #323, #181 ) ;
#163 = VECTOR ( 'NONE', #195, 39.37007874015748143 ) ;
#164 = PLANE ( 'NONE',  #149 ) ;
#165 = ORIENTED_EDGE ( 'NONE', *, *, #370, .F. ) ;
#166 = DIRECTION ( 'NONE',  ( 1.000000000000000000, 0.000000000000000000, 0.000000000000000000 ) ) ;
#167 = ADVANCED_FACE ( 'NONE', ( #348 ), #206, .F. ) ;
#168 = ORIENTED_EDGE ( 'NONE', *, *, #329, .T. ) ;
#169 = PERSON_AND_ORGANIZATION_ROLE ( 'creator' ) ;
#170 = EDGE_LOOP ( 'NONE', ( #168, #338 ) ) ;
#171 = AXIS2_PLACEMENT_3D ( 'NONE', #325, #29, #147 ) ;
#172 = VECTOR ( 'NONE', #45, 39.37007874015748143 ) ;
#173 = APPROVAL_ROLE ( '' ) ;
#174 = CARTESIAN_POINT ( 'NONE',  ( 1.732283464566929165, 0.8661417322834645827, 0.000000000000000000 ) ) ;
#175 = CALENDAR_DATE ( 2022, 26, 4 ) ;
#176 = APPROVAL_ROLE ( '' ) ;
#177 = CARTESIAN_POINT ( 'NONE',  ( 0.3149606299212597826, 0.4330708661417322913, 0.000000000000000000 ) ) ;
#178 = AXIS2_PLACEMENT_3D ( 'NONE', #148, #22, #295 ) ;
#179 = APPROVAL_ROLE ( '' ) ;
#180 = EDGE_LOOP ( 'NONE', ( #62, #152, #222, #366 ) ) ;
#181 = DIRECTION ( 'NONE',  ( 1.000000000000000000, 0.000000000000000000, 0.000000000000000000 ) ) ;
#182 = DIRECTION ( 'NONE',  ( 0.000000000000000000, 1.000000000000000000, 0.000000000000000000 ) ) ;
#183 = LOCAL_TIME ( 15, 56, 25.00000000000000000, #347 ) ;
#184 = ORIENTED_EDGE ( 'NONE', *, *, #101, .T. ) ;
#185 = ADVANCED_FACE ( 'NONE', ( #33 ), #361, .F. ) ;
#186 = PLANE ( 'NONE',  #43 ) ;
#187 = FACE_OUTER_BOUND ( 'NONE', #47, .T. ) ;
#188 = ADVANCED_FACE ( 'NONE', ( #244 ), #151, .F. ) ;
#189 = ORIENTED_EDGE ( 'NONE', *, *, #296, .T. ) ;
#190 = CARTESIAN_POINT ( 'NONE',  ( 0.000000000000000000, 0.8661417322834645827, 0.1181102362204724532 ) ) ;
#191 = VERTEX_POINT ( 'NONE', #277 ) ;
#192 = CARTESIAN_POINT ( 'NONE',  ( 1.732283464566929165, 0.000000000000000000, 0.000000000000000000 ) ) ;
#193 = ORIENTED_EDGE ( 'NONE', *, *, #161, .F. ) ;
#194 = EDGE_CURVE ( 'NONE', #254, #278, #215, .T. ) ;
#195 = DIRECTION ( 'NONE',  ( -1.000000000000000000, -0.000000000000000000, -0.000000000000000000 ) ) ;
#196 = ORIENTED_EDGE ( 'NONE', *, *, #209, .F. ) ;
#197 = CARTESIAN_POINT ( 'NONE',  ( 0.4133858267716535306, 0.4330708661417322913, 0.000000000000000000 ) ) ;
#198 = ORIENTED_EDGE ( 'NONE', *, *, #101, .F. ) ;
#199 = CALENDAR_DATE ( 2022, 26, 4 ) ;
#200 = CARTESIAN_POINT ( 'NONE',  ( 0.000000000000000000, 0.8661417322834645827, 0.1181102362204724532 ) ) ;
#201 = VECTOR ( 'NONE', #2, 39.37007874015748143 ) ;
#202 = AXIS2_PLACEMENT_3D ( 'NONE', #85, #109, #114 ) ;
#203 = DIRECTION ( 'NONE',  ( 1.000000000000000000, 0.000000000000000000, 0.000000000000000000 ) ) ;
#204 = ADVANCED_FACE ( 'NONE', ( #90 ), #63, .F. ) ;
#205 = DATE_AND_TIME ( #175, #115 ) ;
#206 = CYLINDRICAL_SURFACE ( 'NONE', #171, 0.09842519685039378963 ) ;
#207 = DIRECTION ( 'NONE',  ( 0.000000000000000000, 0.000000000000000000, 1.000000000000000000 ) ) ;
#208 = AXIS2_PLACEMENT_3D ( 'NONE', #177, #383, #203 ) ;
#209 = EDGE_CURVE ( 'NONE', #284, #41, #123, .T. ) ;
#210 = CIRCLE ( 'NONE', #322, 0.09842519685039378963 ) ;
#211 = CARTESIAN_POINT ( 'NONE',  ( 0.2165354330708660624, 0.4330708661417322913, 0.000000000000000000 ) ) ;
#212 = CARTESIAN_POINT ( 'NONE',  ( 1.515748031496062964, 0.4330708661417322913, 0.000000000000000000 ) ) ;
#213 = CARTESIAN_POINT ( 'NONE',  ( 1.732283464566929165, 0.000000000000000000, 0.1181102362204724532 ) ) ;
#214 = APPROVAL ( #237, 'UNSPECIFIED' ) ;
#215 = LINE ( 'NONE', #270, #364 ) ;
#216 = ORIENTED_EDGE ( 'NONE', *, *, #131, .F. ) ;
#217 = FACE_BOUND ( 'NONE', #170, .T. ) ;
#218 = EDGE_CURVE ( 'NONE', #369, #221, #357, .T. ) ;
#219 = LINE ( 'NONE', #190, #163 ) ;
#220 = AXIS2_PLACEMENT_3D ( 'NONE', #116, #89, #57 ) ;
#221 = VERTEX_POINT ( 'NONE', #36 ) ;
#222 = ORIENTED_EDGE ( 'NONE', *, *, #305, .T. ) ;
#223 = VERTEX_POINT ( 'NONE', #59 ) ;
#224 = ADVANCED_FACE ( 'NONE', ( #248 ), #249, .F. ) ;
#225 = DIRECTION ( 'NONE',  ( -1.000000000000000000, 0.000000000000000000, -0.000000000000000000 ) ) ;
#226 = ORIENTED_EDGE ( 'NONE', *, *, #64, .F. ) ;
#227 = PRODUCT_RELATED_PRODUCT_CATEGORY ( 'detail', '', ( #58 ) ) ;
#228 = LINE ( 'NONE', #75, #172 ) ;
#229 = ORIENTED_EDGE ( 'NONE', *, *, #274, .T. ) ;
#230 = COORDINATED_UNIVERSAL_TIME_OFFSET ( 6, 0, .BEHIND. ) ;
#231 = CARTESIAN_POINT ( 'NONE',  ( 0.000000000000000000, 0.000000000000000000, 0.1181102362204724532 ) ) ;
#232 = PRODUCT_DEFINITION_SHAPE ( 'NONE', 'NONE',  #146 ) ;
#233 = PERSON_AND_ORGANIZATION_ROLE ( 'design_owner' ) ;
#234 = DIRECTION ( 'NONE',  ( 1.000000000000000000, 0.000000000000000000, 0.000000000000000000 ) ) ;
#235 = CIRCLE ( 'NONE', #320, 0.09842519685039372024 ) ;
#236 = CC_DESIGN_APPROVAL ( #16, ( #10 ) ) ;
#237 = APPROVAL_STATUS ( 'not_yet_approved' ) ;
#238 = VERTEX_POINT ( 'NONE', #212 ) ;
#239 = PERSON_AND_ORGANIZATION ( #380, #19 ) ;
#240 = CYLINDRICAL_SURFACE ( 'NONE', #27, 0.09842519685039378963 ) ;
#241 = ADVANCED_FACE ( 'NONE', ( #37, #60, #187 ), #186, .F. ) ;
#242 = DATE_AND_TIME ( #199, #378 ) ;
#243 = CARTESIAN_POINT ( 'NONE',  ( 1.417322834645669216, 0.4330708661417322913, 0.000000000000000000 ) ) ;
#244 = FACE_OUTER_BOUND ( 'NONE', #337, .T. ) ;
#245 = CARTESIAN_POINT ( 'NONE',  ( 1.318897637795275468, 0.4330708661417322913, 0.000000000000000000 ) ) ;
#246 = AXIS2_PLACEMENT_3D ( 'NONE', #359, #182, #334 ) ;
#247 = VECTOR ( 'NONE', #159, 39.37007874015748143 ) ;
#248 = FACE_OUTER_BOUND ( 'NONE', #132, .T. ) ;
#249 = PLANE ( 'NONE',  #246 ) ;
#250 = CARTESIAN_POINT ( 'NONE',  ( 0.000000000000000000, 0.000000000000000000, 0.1181102362204724532 ) ) ;
#251 = FACE_OUTER_BOUND ( 'NONE', #103, .T. ) ;
#252 = ORIENTED_EDGE ( 'NONE', *, *, #53, .F. ) ;
#253 = LOCAL_TIME ( 15, 56, 25.00000000000000000, #230 ) ;
#254 = VERTEX_POINT ( 'NONE', #95 ) ;
#255 = DIRECTION ( 'NONE',  ( 0.000000000000000000, 0.000000000000000000, -1.000000000000000000 ) ) ;
#256 = ORIENTED_EDGE ( 'NONE', *, *, #50, .T. ) ;
#257 = LENGTH_MEASURE_WITH_UNIT ( LENGTH_MEASURE( 0.02539999999999999897 ), #280 );
#258 = VERTEX_POINT ( 'NONE', #387 ) ;
#259 = LINE ( 'NONE', #31, #353 ) ;
#260 = MECHANICAL_CONTEXT ( 'NONE', #271, 'mechanical' ) ;
#261 = DIRECTION ( 'NONE',  ( -0.000000000000000000, -0.000000000000000000, 1.000000000000000000 ) ) ;
#262 = PERSON_AND_ORGANIZATION_ROLE ( 'design_supplier' ) ;
#263 = DIRECTION ( 'NONE',  ( 1.000000000000000000, 0.000000000000000000, 0.000000000000000000 ) ) ;
#264 = CIRCLE ( 'NONE', #220, 0.09842519685039378963 ) ;
#265 = PERSON_AND_ORGANIZATION ( #380, #19 ) ;
#266 = ADVANCED_FACE ( 'NONE', ( #217, #330, #333 ), #308, .T. ) ;
#267 = CARTESIAN_POINT ( 'NONE',  ( 0.3149606299212597826, 0.4330708661417322913, 0.1181102362204724532 ) ) ;
#268 = CALENDAR_DATE ( 2022, 26, 4 ) ;
#269 = LINE ( 'NONE', #79, #371 ) ;
#270 = CARTESIAN_POINT ( 'NONE',  ( 0.000000000000000000, 0.000000000000000000, 0.000000000000000000 ) ) ;
#271 = APPLICATION_CONTEXT ( 'configuration controlled 3d designs of mechanical parts and assemblies' ) ;
#272 = LOCAL_TIME ( 15, 56, 25.00000000000000000, #54 ) ;
#273 = DIRECTION ( 'NONE',  ( 0.000000000000000000, 0.000000000000000000, -1.000000000000000000 ) ) ;
#274 = EDGE_CURVE ( 'NONE', #284, #342, #219, .T. ) ;
#275 = DIRECTION ( 'NONE',  ( -1.000000000000000000, 0.000000000000000000, -0.000000000000000000 ) ) ;
#276 = ORIENTED_EDGE ( 'NONE', *, *, #291, .T. ) ;
#277 = CARTESIAN_POINT ( 'NONE',  ( 0.4133858267716535306, 0.4330708661417322913, 0.1181102362204724532 ) ) ;
#278 = VERTEX_POINT ( 'NONE', #192 ) ;
#279 = CARTESIAN_POINT ( 'NONE',  ( 1.732283464566929165, 0.000000000000000000, 0.1181102362204724532 ) ) ;
#280 =( LENGTH_UNIT ( ) NAMED_UNIT ( * ) SI_UNIT ( $, .METRE. ) );
#281 = ORIENTED_EDGE ( 'NONE', *, *, #68, .F. ) ;
#282 = CIRCLE ( 'NONE', #208, 0.09842519685039372024 ) ;
#283 = CARTESIAN_POINT ( 'NONE',  ( 0.000000000000000000, 0.000000000000000000, 0.1181102362204724532 ) ) ;
#284 = VERTEX_POINT ( 'NONE', #133 ) ;
#285 = CC_DESIGN_PERSON_AND_ORGANIZATION_ASSIGNMENT ( #117, #26, ( #146 ) ) ;
#286 = DIRECTION ( 'NONE',  ( -0.000000000000000000, -0.000000000000000000, -1.000000000000000000 ) ) ;
#287 = VERTEX_POINT ( 'NONE', #40 ) ;
#288 = DIRECTION ( 'NONE',  ( 0.000000000000000000, -1.000000000000000000, 0.000000000000000000 ) ) ;
#289 = ORIENTED_EDGE ( 'NONE', *, *, #274, .F. ) ;
#290 = ORIENTED_EDGE ( 'NONE', *, *, #30, .F. ) ;
#291 = EDGE_CURVE ( 'NONE', #287, #278, #127, .T. ) ;
#292 = UNCERTAINTY_MEASURE_WITH_UNIT (LENGTH_MEASURE( 1.000000000000000082E-05 ), #100, 'distance_accuracy_value', 'NONE');
#293 = SHAPE_DEFINITION_REPRESENTATION ( #232, #120 ) ;
#294 = LINE ( 'NONE', #144, #88 ) ;
#295 = DIRECTION ( 'NONE',  ( 1.000000000000000000, 0.000000000000000000, 0.000000000000000000 ) ) ;
#296 = EDGE_CURVE ( 'NONE', #343, #191, #158, .T. ) ;
#297 = PERSON_AND_ORGANIZATION ( #380, #19 ) ;
#298 = DIRECTION ( 'NONE',  ( 1.000000000000000000, 0.000000000000000000, 0.000000000000000000 ) ) ;
#299 = SECURITY_CLASSIFICATION_LEVEL ( 'unclassified' ) ;
#300 = DIRECTION ( 'NONE',  ( -0.000000000000000000, -1.000000000000000000, -0.000000000000000000 ) ) ;
#301 = DIRECTION ( 'NONE',  ( 0.000000000000000000, 0.000000000000000000, 1.000000000000000000 ) ) ;
#302 = CLOSED_SHELL ( 'NONE', ( #167, #384, #185, #224, #188, #386, #241, #266, #204, #142 ) ) ;
#303 =( GEOMETRIC_REPRESENTATION_CONTEXT ( 3 ) GLOBAL_UNCERTAINTY_ASSIGNED_CONTEXT ( ( #292 ) ) GLOBAL_UNIT_ASSIGNED_CONTEXT ( ( #100, #7, #104 ) ) REPRESENTATION_CONTEXT ( 'NONE', 'WORKASPACE' ) );
#304 = DIRECTION ( 'NONE',  ( 0.000000000000000000, 0.000000000000000000, -1.000000000000000000 ) ) ;
#305 = EDGE_CURVE ( 'NONE', #238, #223, #228, .T. ) ;
#306 = DIRECTION ( 'NONE',  ( -0.000000000000000000, -0.000000000000000000, 1.000000000000000000 ) ) ;
#307 = AXIS2_PLACEMENT_3D ( 'NONE', #156, #125, #273 ) ;
#308 = PLANE ( 'NONE',  #72 ) ;
#309 = DIRECTION ( 'NONE',  ( -0.000000000000000000, -1.000000000000000000, -0.000000000000000000 ) ) ;
#310 = VERTEX_POINT ( 'NONE', #283 ) ;
#311 = CARTESIAN_POINT ( 'NONE',  ( 0.000000000000000000, 0.8661417322834645827, 0.1181102362204724532 ) ) ;
#312 = EDGE_LOOP ( 'NONE', ( #290, #226, #189, #124 ) ) ;
#313 = APPROVAL ( #324, 'UNSPECIFIED' ) ;
#314 = DIRECTION ( 'NONE',  ( 0.000000000000000000, 0.000000000000000000, 1.000000000000000000 ) ) ;
#315 = ORIENTED_EDGE ( 'NONE', *, *, #153, .T. ) ;
#316 = CARTESIAN_POINT ( 'NONE',  ( 0.3149606299212597826, 0.4330708661417322913, 0.000000000000000000 ) ) ;
#317 = ORIENTED_EDGE ( 'NONE', *, *, #137, .F. ) ;
#318 = EDGE_LOOP ( 'NONE', ( #105, #165, #12, #340 ) ) ;
#319 = DATE_AND_TIME ( #268, #272 ) ;
#320 = AXIS2_PLACEMENT_3D ( 'NONE', #110, #301, #298 ) ;
#321 = DIRECTION ( 'NONE',  ( -0.000000000000000000, -0.000000000000000000, -1.000000000000000000 ) ) ;
#322 = AXIS2_PLACEMENT_3D ( 'NONE', #66, #314, #107 ) ;
#323 = DIRECTION ( 'NONE',  ( 0.000000000000000000, 0.000000000000000000, 1.000000000000000000 ) ) ;
#324 = APPROVAL_STATUS ( 'not_yet_approved' ) ;
#325 = CARTESIAN_POINT ( 'NONE',  ( 1.417322834645669216, 0.4330708661417322913, 0.000000000000000000 ) ) ;
#326 = APPLICATION_PROTOCOL_DEFINITION ( 'international standard', 'config_control_design', 1994, #354 ) ;
#327 = MANIFOLD_SOLID_BREP ( 'HOLES', #302 ) ;
#328 = EDGE_LOOP ( 'NONE', ( #281, #76, #315, #388 ) ) ;
#329 = EDGE_CURVE ( 'NONE', #238, #369, #210, .T. ) ;
#330 = FACE_BOUND ( 'NONE', #67, .T. ) ;
#331 = DIRECTION ( 'NONE',  ( -0.000000000000000000, -0.000000000000000000, 1.000000000000000000 ) ) ;
#332 = VECTOR ( 'NONE', #263, 39.37007874015748143 ) ;
#333 = FACE_OUTER_BOUND ( 'NONE', #318, .T. ) ;
#334 = DIRECTION ( 'NONE',  ( 0.000000000000000000, -0.000000000000000000, 1.000000000000000000 ) ) ;
#335 = AXIS2_PLACEMENT_3D ( 'NONE', #385, #306, #150 ) ;
#336 = CARTESIAN_POINT ( 'NONE',  ( 1.318897637795275468, 0.4330708661417322913, 0.000000000000000000 ) ) ;
#337 = EDGE_LOOP ( 'NONE', ( #358, #196, #317, #276 ) ) ;
#338 = ORIENTED_EDGE ( 'NONE', *, *, #68, .T. ) ;
#339 = FACE_OUTER_BOUND ( 'NONE', #368, .T. ) ;
#340 = ORIENTED_EDGE ( 'NONE', *, *, #194, .F. ) ;
#341 = DIRECTION ( 'NONE',  ( -0.000000000000000000, -0.000000000000000000, 1.000000000000000000 ) ) ;
#342 = VERTEX_POINT ( 'NONE', #311 ) ;
#343 = VERTEX_POINT ( 'NONE', #135 ) ;
#344 = DESIGN_CONTEXT ( 'detailed design', #354, 'design' ) ;
#345 = CALENDAR_DATE ( 2022, 26, 4 ) ;
#346 = DIRECTION ( 'NONE',  ( 0.000000000000000000, 0.000000000000000000, 1.000000000000000000 ) ) ;
#347 = COORDINATED_UNIVERSAL_TIME_OFFSET ( 6, 0, .BEHIND. ) ;
#348 = FACE_OUTER_BOUND ( 'NONE', #328, .T. ) ;
#349 = APPROVAL_DATE_TIME ( #143, #214 ) ;
#350 = ORIENTED_EDGE ( 'NONE', *, *, #84, .F. ) ;
#351 = PERSON_AND_ORGANIZATION ( #380, #19 ) ;
#352 = ORIENTED_EDGE ( 'NONE', *, *, #30, .T. ) ;
#353 = VECTOR ( 'NONE', #300, 39.37007874015748143 ) ;
#354 = APPLICATION_CONTEXT ( 'configuration controlled 3d designs of mechanical parts and assemblies' ) ;
#355 = EDGE_CURVE ( 'NONE', #310, #254, #367, .T. ) ;
#356 = DIRECTION ( 'NONE',  ( 1.000000000000000000, 0.000000000000000000, 0.000000000000000000 ) ) ;
#357 = LINE ( 'NONE', #245, #34 ) ;
#358 = ORIENTED_EDGE ( 'NONE', *, *, #78, .T. ) ;
#359 = CARTESIAN_POINT ( 'NONE',  ( 0.000000000000000000, 0.000000000000000000, 0.1181102362204724532 ) ) ;
#360 = ORIENTED_EDGE ( 'NONE', *, *, #291, .F. ) ;
#361 = PLANE ( 'NONE',  #307 ) ;
#362 = CARTESIAN_POINT ( 'NONE',  ( 0.000000000000000000, 0.8661417322834645827, 0.000000000000000000 ) ) ;
#363 = ORIENTED_EDGE ( 'NONE', *, *, #91, .F. ) ;
#364 = VECTOR ( 'NONE', #356, 39.37007874015748143 ) ;
#365 = EDGE_CURVE ( 'NONE', #342, #310, #15, .T. ) ;
#366 = ORIENTED_EDGE ( 'NONE', *, *, #131, .T. ) ;
#367 = LINE ( 'NONE', #39, #129 ) ;
#368 = EDGE_LOOP ( 'NONE', ( #350, #352, #373, #97 ) ) ;
#369 = VERTEX_POINT ( 'NONE', #336 ) ;
#370 = EDGE_CURVE ( 'NONE', #41, #258, #44, .T. ) ;
#371 = VECTOR ( 'NONE', #382, 39.37007874015748143 ) ;
#372 = DIRECTION ( 'NONE',  ( 0.000000000000000000, -0.000000000000000000, -1.000000000000000000 ) ) ;
#373 = ORIENTED_EDGE ( 'NONE', *, *, #91, .T. ) ;
#374 = PERSON_AND_ORGANIZATION_ROLE ( 'classification_officer' ) ;
#375 = CALENDAR_DATE ( 2022, 26, 4 ) ;
#376 = VECTOR ( 'NONE', #321, 39.37007874015748143 ) ;
#377 = FACE_OUTER_BOUND ( 'NONE', #180, .T. ) ;
#378 = LOCAL_TIME ( 15, 56, 25.00000000000000000, #111 ) ;
#379 = APPROVAL_PERSON_ORGANIZATION ( #265, #16, #173 ) ;
#380 = PERSON ( 'UNSPECIFIED', 'UNSPECIFIED', 'UNSPECIFIED', ('UNSPECIFIED'), ('UNSPECIFIED'), ('UNSPECIFIED') ) ;
#381 = PERSON_AND_ORGANIZATION ( #380, #19 ) ;
#382 = DIRECTION ( 'NONE',  ( 0.000000000000000000, 1.000000000000000000, 0.000000000000000000 ) ) ;
#383 = DIRECTION ( 'NONE',  ( 0.000000000000000000, 0.000000000000000000, 1.000000000000000000 ) ) ;
#384 = ADVANCED_FACE ( 'NONE', ( #339 ), #6, .F. ) ;
#385 = CARTESIAN_POINT ( 'NONE',  ( 0.3149606299212597826, 0.4330708661417322913, 0.000000000000000000 ) ) ;
#386 = ADVANCED_FACE ( 'NONE', ( #251 ), #164, .F. ) ;
#387 = CARTESIAN_POINT ( 'NONE',  ( 0.000000000000000000, 0.8661417322834645827, 0.000000000000000000 ) ) ;
#388 = ORIENTED_EDGE ( 'NONE', *, *, #305, .F. ) ;
ENDSEC;
END-ISO-10303-21;
