ISO-10303-21;
HEADER;
FILE_DESCRIPTION (( 'STEP AP203' ),
    '1' );
FILE_NAME ('ZJ2034.STEP',
    '2022-04-26T20:54:53',
    ( '' ),
    ( '' ),
    'SwSTEP 2.0',
    'SolidWorks 2020',
    '' );
FILE_SCHEMA (( 'CONFIG_CONTROL_DESIGN' ));
ENDSEC;

DATA;
#1 = CARTESIAN_POINT ( 'NONE',  ( 1.811023622047244208, -2.904061277052022216, 0.05905511811023622659 ) ) ;
#2 = LINE ( 'NONE', #255, #262 ) ;
#3 = PRODUCT_RELATED_PRODUCT_CATEGORY ( 'detail', '', ( #136 ) ) ;
#4 = DIRECTION ( 'NONE',  ( 0.000000000000000000, 1.000000000000000000, 0.000000000000000000 ) ) ;
#5 = CARTESIAN_POINT ( 'NONE',  ( 6.412919544768556968, 0.4527559055118110520, 0.05905511811023622659 ) ) ;
#6 = CARTESIAN_POINT ( 'NONE',  ( 1.811023622047244208, -2.904061277052022216, 0.05905511811023622659 ) ) ;
#7 = PRODUCT_DEFINITION_SHAPE ( 'NONE', 'NONE',  #287 ) ;
#8 = EDGE_CURVE ( 'NONE', #16, #49, #237, .T. ) ;
#9 = DIRECTION ( 'NONE',  ( 0.000000000000000000, 1.000000000000000000, 0.000000000000000000 ) ) ;
#10 = LINE ( 'NONE', #135, #29 ) ;
#11 = VECTOR ( 'NONE', #131, 39.37007874015748854 ) ;
#12 =( LENGTH_UNIT ( ) NAMED_UNIT ( * ) SI_UNIT ( $, .METRE. ) );
#13 = VERTEX_POINT ( 'NONE', #236 ) ;
#14 = AXIS2_PLACEMENT_3D ( 'NONE', #194, #146, #214 ) ;
#15 = CLOSED_SHELL ( 'NONE', ( #257, #162, #282, #34, #229, #103, #113, #234, #117 ) ) ;
#16 = VERTEX_POINT ( 'NONE', #74 ) ;
#17 = DIRECTION ( 'NONE',  ( 0.000000000000000000, 0.000000000000000000, -1.000000000000000000 ) ) ;
#18 = ORIENTED_EDGE ( 'NONE', *, *, #53, .T. ) ;
#19 = COORDINATED_UNIVERSAL_TIME_OFFSET ( 6, 0, .BEHIND. ) ;
#20 = ORIENTED_EDGE ( 'NONE', *, *, #160, .F. ) ;
#21 = DATE_AND_TIME ( #73, #261 ) ;
#22 = ORIENTED_EDGE ( 'NONE', *, *, #166, .T. ) ;
#23 = CARTESIAN_POINT ( 'NONE',  ( 1.795199850840681899, 0.000000000000000000, 0.000000000000000000 ) ) ;
#24 = EDGE_CURVE ( 'NONE', #187, #184, #239, .T. ) ;
#25 = PERSON_AND_ORGANIZATION ( #31, #208 ) ;
#26 = FACE_OUTER_BOUND ( 'NONE', #209, .T. ) ;
#27 = CC_DESIGN_PERSON_AND_ORGANIZATION_ASSIGNMENT ( #321, #98, ( #251 ) ) ;
#28 = COORDINATED_UNIVERSAL_TIME_OFFSET ( 6, 0, .BEHIND. ) ;
#29 = VECTOR ( 'NONE', #87, 39.37007874015748143 ) ;
#30 = PLANE ( 'NONE',  #83 ) ;
#31 = PERSON ( 'UNSPECIFIED', 'UNSPECIFIED', 'UNSPECIFIED', ('UNSPECIFIED'), ('UNSPECIFIED'), ('UNSPECIFIED') ) ;
#32 = DIRECTION ( 'NONE',  ( 0.000000000000000000, 0.4999999999999979461, -0.8660254037844398178 ) ) ;
#33 = DIRECTION ( 'NONE',  ( -0.1327881760961073521, -0.8583562635740499269, -0.4955722198350763774 ) ) ;
#34 = ADVANCED_FACE ( 'NONE', ( #178 ), #170, .F. ) ;
#35 = CARTESIAN_POINT ( 'NONE',  ( 1.795199850840682121, -2.904061277052022216, 0.1181102362204727724 ) ) ;
#36 = EDGE_CURVE ( 'NONE', #187, #188, #81, .T. ) ;
#37 = APPROVAL_DATE_TIME ( #305, #66 ) ;
#38 = FACE_OUTER_BOUND ( 'NONE', #297, .T. ) ;
#39 = VECTOR ( 'NONE', #164, 39.37007874015748854 ) ;
#40 = CARTESIAN_POINT ( 'NONE',  ( 1.811023622047244208, 0.4527559055118110520, 0.05905511811023622659 ) ) ;
#41 = AXIS2_PLACEMENT_3D ( 'NONE', #52, #4, #274 ) ;
#42 = ORIENTED_EDGE ( 'NONE', *, *, #253, .T. ) ;
#43 = CARTESIAN_POINT ( 'NONE',  ( 0.1130770846032604499, -0.2781858597072034978, 0.4810645430213788543 ) ) ;
#44 = CC_DESIGN_DATE_AND_TIME_ASSIGNMENT ( #217, #298, ( #122 ) ) ;
#45 = ORIENTED_EDGE ( 'NONE', *, *, #106, .T. ) ;
#46 = EDGE_CURVE ( 'NONE', #49, #13, #269, .T. ) ;
#47 = ORIENTED_EDGE ( 'NONE', *, *, #201, .T. ) ;
#48 = PERSON_AND_ORGANIZATION_ROLE ( 'creator' ) ;
#49 = VERTEX_POINT ( 'NONE', #243 ) ;
#50 = COORDINATED_UNIVERSAL_TIME_OFFSET ( 6, 0, .BEHIND. ) ;
#51 = LINE ( 'NONE', #155, #11 ) ;
#52 = CARTESIAN_POINT ( 'NONE',  ( 0.000000000000000000, 0.000000000000000000, 0.1181102362204724532 ) ) ;
#53 = EDGE_CURVE ( 'NONE', #13, #315, #51, .T. ) ;
#54 = CALENDAR_DATE ( 2022, 26, 4 ) ;
#55 = DIRECTION ( 'NONE',  ( -0.2588190451025204064, 0.000000000000000000, -0.9659258262890684232 ) ) ;
#56 = UNCERTAINTY_MEASURE_WITH_UNIT (LENGTH_MEASURE( 1.000000000000000082E-05 ), #202, 'distance_accuracy_value', 'NONE');
#57 = VECTOR ( 'NONE', #9, 39.37007874015748143 ) ;
#58 = CARTESIAN_POINT ( 'NONE',  ( 0.000000000000000000, 0.3504694404979020184, 0.1181102362204724532 ) ) ;
#59 = PLANE ( 'NONE',  #299 ) ;
#60 = FACE_OUTER_BOUND ( 'NONE', #168, .T. ) ;
#61 = CALENDAR_DATE ( 2022, 26, 4 ) ;
#62 = APPROVAL_PERSON_ORGANIZATION ( #270, #66, #227 ) ;
#63 =( NAMED_UNIT ( * ) PLANE_ANGLE_UNIT ( ) SI_UNIT ( $, .RADIAN. ) );
#64 = AXIS2_PLACEMENT_3D ( 'NONE', #6, #222, #197 ) ;
#65 = LINE ( 'NONE', #182, #311 ) ;
#66 = APPROVAL ( #84, 'UNSPECIFIED' ) ;
#67 = CARTESIAN_POINT ( 'NONE',  ( 0.000000000000000000, 0.4527559055118110520, 0.000000000000000000 ) ) ;
#68 = FACE_OUTER_BOUND ( 'NONE', #118, .T. ) ;
#69 = ORIENTED_EDGE ( 'NONE', *, *, #46, .T. ) ;
#70 = EDGE_CURVE ( 'NONE', #184, #16, #149, .T. ) ;
#71 = VERTEX_POINT ( 'NONE', #23 ) ;
#72 = ORIENTED_EDGE ( 'NONE', *, *, #175, .T. ) ;
#73 = CALENDAR_DATE ( 2022, 26, 4 ) ;
#74 = CARTESIAN_POINT ( 'NONE',  ( 0.000000000000000000, 0.4527559055118108855, 0.05905511811023622659 ) ) ;
#75 = ORIENTED_EDGE ( 'NONE', *, *, #160, .T. ) ;
#76 = APPROVAL_DATE_TIME ( #319, #120 ) ;
#77 = ORIENTED_EDGE ( 'NONE', *, *, #207, .F. ) ;
#78 = LOCAL_TIME ( 15, 54, 53.00000000000000000, #50 ) ;
#79 = APPLICATION_PROTOCOL_DEFINITION ( 'international standard', 'config_control_design', 1994, #296 ) ;
#80 = CARTESIAN_POINT ( 'NONE',  ( 0.1130770846032648214, -0.2781858597072189299, -0.3629543068009086770 ) ) ;
#81 = LINE ( 'NONE', #245, #129 ) ;
#82 = DIRECTION ( 'NONE',  ( -0.9659258262890680902, 0.000000000000000000, -0.2588190451025216277 ) ) ;
#83 = AXIS2_PLACEMENT_3D ( 'NONE', #107, #82, #176 ) ;
#84 = APPROVAL_STATUS ( 'not_yet_approved' ) ;
#85 = CC_DESIGN_SECURITY_CLASSIFICATION ( #122, ( #251 ) ) ;
#86 = FACE_OUTER_BOUND ( 'NONE', #216, .T. ) ;
#87 = DIRECTION ( 'NONE',  ( 0.000000000000000000, 1.000000000000000000, 0.000000000000000000 ) ) ;
#88 = DIRECTION ( 'NONE',  ( 0.000000000000000000, 0.5000000000000039968, 0.8660254037844363761 ) ) ;
#89 = CC_DESIGN_PERSON_AND_ORGANIZATION_ASSIGNMENT ( #173, #273, ( #136 ) ) ;
#90 = CARTESIAN_POINT ( 'NONE',  ( 0.01582377120656194500, 0.000000000000000000, 0.1181102362204724532 ) ) ;
#91 = PLANE ( 'NONE',  #153 ) ;
#92 = LOCAL_TIME ( 15, 54, 53.00000000000000000, #19 ) ;
#93 = ORIENTED_EDGE ( 'NONE', *, *, #175, .F. ) ;
#94 = ORIENTED_EDGE ( 'NONE', *, *, #195, .F. ) ;
#95 = VERTEX_POINT ( 'NONE', #104 ) ;
#96 = VECTOR ( 'NONE', #272, 39.37007874015748143 ) ;
#97 = ORIENTED_EDGE ( 'NONE', *, *, #290, .F. ) ;
#98 = PERSON_AND_ORGANIZATION_ROLE ( 'creator' ) ;
#99 = ORIENTED_EDGE ( 'NONE', *, *, #318, .F. ) ;
#100 = PERSON_AND_ORGANIZATION ( #31, #208 ) ;
#101 = DIRECTION ( 'NONE',  ( 0.000000000000000000, 1.000000000000000000, 0.000000000000000000 ) ) ;
#102 = VECTOR ( 'NONE', #279, 39.37007874015748143 ) ;
#103 = ADVANCED_FACE ( 'NONE', ( #126 ), #308, .T. ) ;
#104 = CARTESIAN_POINT ( 'NONE',  ( 1.795199850840681899, 0.3504694404979002975, 3.297637840354777838E-16 ) ) ;
#105 = DIRECTION ( 'NONE',  ( 1.000000000000000000, -0.000000000000000000, 0.000000000000000000 ) ) ;
#106 = EDGE_CURVE ( 'NONE', #315, #16, #109, .T. ) ;
#107 = CARTESIAN_POINT ( 'NONE',  ( 0.000000000000000000, -2.776203195784636257, 0.05905511811023622659 ) ) ;
#108 = CC_DESIGN_PERSON_AND_ORGANIZATION_ASSIGNMENT ( #25, #48, ( #287 ) ) ;
#109 = LINE ( 'NONE', #224, #115 ) ;
#110 = LENGTH_MEASURE_WITH_UNIT ( LENGTH_MEASURE( 0.02539999999999999897 ), #12 );
#111 = DIRECTION ( 'NONE',  ( 1.000000000000000000, 0.000000000000000000, 0.000000000000000000 ) ) ;
#112 = CARTESIAN_POINT ( 'NONE',  ( 0.000000000000000000, 0.4527559055118110520, 0.1181102362204724532 ) ) ;
#113 = ADVANCED_FACE ( 'NONE', ( #278 ), #218, .T. ) ;
#114 = APPROVAL_PERSON_ORGANIZATION ( #189, #120, #244 ) ;
#115 = VECTOR ( 'NONE', #223, 39.37007874015748143 ) ;
#116 = ORIENTED_EDGE ( 'NONE', *, *, #8, .F. ) ;
#117 = ADVANCED_FACE ( 'NONE', ( #26 ), #30, .T. ) ;
#118 = EDGE_LOOP ( 'NONE', ( #320, #259, #97, #20 ) ) ;
#119 = CARTESIAN_POINT ( 'NONE',  ( 1.674944263269380951, 0.000000000000000000, 0.5669101989306314371 ) ) ;
#120 = APPROVAL ( #301, 'UNSPECIFIED' ) ;
#121 = ORIENTED_EDGE ( 'NONE', *, *, #142, .F. ) ;
#122 = SECURITY_CLASSIFICATION ( '', '', #169 ) ;
#123 = ORIENTED_EDGE ( 'NONE', *, *, #24, .F. ) ;
#124 = CALENDAR_DATE ( 2022, 26, 4 ) ;
#125 = ORIENTED_EDGE ( 'NONE', *, *, #46, .F. ) ;
#126 = FACE_OUTER_BOUND ( 'NONE', #190, .T. ) ;
#127 = COORDINATED_UNIVERSAL_TIME_OFFSET ( 6, 0, .BEHIND. ) ;
#128 = CARTESIAN_POINT ( 'NONE',  ( 0.01582377120656242031, 0.000000000000000000, 9.750241258186790981E-19 ) ) ;
#129 = VECTOR ( 'NONE', #242, 39.37007874015748143 ) ;
#130 = VECTOR ( 'NONE', #225, 39.37007874015748143 ) ;
#131 = DIRECTION ( 'NONE',  ( 0.1327881760961052149, 0.8583562635740467073, -0.4955722198350824281 ) ) ;
#132 = LINE ( 'NONE', #198, #96 ) ;
#133 = LINE ( 'NONE', #1, #256 ) ;
#134 =( GEOMETRIC_REPRESENTATION_CONTEXT ( 3 ) GLOBAL_UNCERTAINTY_ASSIGNED_CONTEXT ( ( #56 ) ) GLOBAL_UNIT_ASSIGNED_CONTEXT ( ( #202, #63, #281 ) ) REPRESENTATION_CONTEXT ( 'NONE', 'WORKASPACE' ) );
#135 = CARTESIAN_POINT ( 'NONE',  ( 0.000000000000000000, -2.776203195784636257, 0.05905511811023622659 ) ) ;
#136 = PRODUCT ( 'ZJ2034', 'ZJ2034', '', ( #292 ) ) ;
#137 = LINE ( 'NONE', #139, #102 ) ;
#138 = PLANE ( 'NONE',  #186 ) ;
#139 = CARTESIAN_POINT ( 'NONE',  ( 1.704471822324491903, 0.000000000000000000, -0.3386016120929785655 ) ) ;
#140 = ORIENTED_EDGE ( 'NONE', *, *, #8, .T. ) ;
#141 = ORIENTED_EDGE ( 'NONE', *, *, #142, .T. ) ;
#142 = EDGE_CURVE ( 'NONE', #240, #315, #133, .T. ) ;
#143 = DIRECTION ( 'NONE',  ( -1.000000000000000000, 0.000000000000000000, -0.000000000000000000 ) ) ;
#144 = ORIENTED_EDGE ( 'NONE', *, *, #288, .T. ) ;
#145 = ORIENTED_EDGE ( 'NONE', *, *, #53, .F. ) ;
#146 = DIRECTION ( 'NONE',  ( 0.000000000000000000, 0.000000000000000000, 1.000000000000000000 ) ) ;
#147 = DIMENSIONAL_EXPONENTS ( 1.000000000000000000, 0.000000000000000000, 0.000000000000000000, 0.000000000000000000, 0.000000000000000000, 0.000000000000000000, 0.000000000000000000 ) ;
#148 = EDGE_LOOP ( 'NONE', ( #94, #121, #263, #75 ) ) ;
#149 = LINE ( 'NONE', #80, #247 ) ;
#150 = CARTESIAN_POINT ( 'NONE',  ( 1.811023622047244208, -2.904061277052022216, 0.05905511811023622659 ) ) ;
#151 = APPROVAL_DATE_TIME ( #266, #313 ) ;
#152 = CARTESIAN_POINT ( 'NONE',  ( 0.000000000000000000, 0.000000000000000000, 0.05905511811023622659 ) ) ;
#153 = AXIS2_PLACEMENT_3D ( 'NONE', #310, #88, #161 ) ;
#154 = VECTOR ( 'NONE', #276, 39.37007874015748143 ) ;
#155 = CARTESIAN_POINT ( 'NONE',  ( 1.892167470953543429, 0.9772779902855236456, -0.2437778487297735663 ) ) ;
#156 = LINE ( 'NONE', #302, #158 ) ;
#157 = CARTESIAN_POINT ( 'NONE',  ( 1.811023622047244208, 0.000000000000000000, 0.05905511811023647639 ) ) ;
#158 = VECTOR ( 'NONE', #174, 39.37007874015748143 ) ;
#159 = DIRECTION ( 'NONE',  ( -1.000000000000000000, 0.000000000000000000, 0.000000000000000000 ) ) ;
#160 = EDGE_CURVE ( 'NONE', #71, #95, #192, .T. ) ;
#161 = DIRECTION ( 'NONE',  ( 0.000000000000000000, -0.8660254037844362651, 0.5000000000000038858 ) ) ;
#162 = ADVANCED_FACE ( 'NONE', ( #86 ), #59, .T. ) ;
#163 = ORIENTED_EDGE ( 'NONE', *, *, #288, .F. ) ;
#164 = DIRECTION ( 'NONE',  ( 0.1327881760961056312, -0.8583562635740467073, 0.4955722198350824281 ) ) ;
#165 = ORIENTED_EDGE ( 'NONE', *, *, #36, .T. ) ;
#166 = EDGE_CURVE ( 'NONE', #188, #317, #132, .T. ) ;
#167 = APPROVAL_STATUS ( 'not_yet_approved' ) ;
#168 = EDGE_LOOP ( 'NONE', ( #211, #72, #144, #125 ) ) ;
#169 = SECURITY_CLASSIFICATION_LEVEL ( 'unclassified' ) ;
#170 = PLANE ( 'NONE',  #41 ) ;
#171 = APPROVAL_ROLE ( '' ) ;
#172 = DIRECTION ( 'NONE',  ( 0.000000000000000000, 0.8660254037844398178, 0.4999999999999979461 ) ) ;
#173 = PERSON_AND_ORGANIZATION ( #31, #208 ) ;
#174 = DIRECTION ( 'NONE',  ( 1.000000000000000000, 0.000000000000000000, 0.000000000000000000 ) ) ;
#175 = EDGE_CURVE ( 'NONE', #317, #233, #156, .T. ) ;
#176 = DIRECTION ( 'NONE',  ( -0.2588190451025215721, 0.000000000000000000, 0.9659258262890679791 ) ) ;
#177 = LOCAL_TIME ( 15, 54, 53.00000000000000000, #28 ) ;
#178 = FACE_OUTER_BOUND ( 'NONE', #294, .T. ) ;
#179 = DIRECTION ( 'NONE',  ( 0.2588190451025135230, 0.000000000000000000, -0.9659258262890701996 ) ) ;
#180 = AXIS2_PLACEMENT_3D ( 'NONE', #204, #254, #181 ) ;
#181 = DIRECTION ( 'NONE',  ( 0.2588190451025144112, 0.000000000000000000, 0.9659258262890699775 ) ) ;
#182 = CARTESIAN_POINT ( 'NONE',  ( 0.01582377120656194500, -2.776203195784636257, 0.1181102362204724532 ) ) ;
#183 = ORIENTED_EDGE ( 'NONE', *, *, #106, .F. ) ;
#184 = VERTEX_POINT ( 'NONE', #307 ) ;
#185 = APPROVAL_PERSON_ORGANIZATION ( #238, #313, #171 ) ;
#186 = AXIS2_PLACEMENT_3D ( 'NONE', #112, #17, #143 ) ;
#187 = VERTEX_POINT ( 'NONE', #128 ) ;
#188 = VERTEX_POINT ( 'NONE', #152 ) ;
#189 = PERSON_AND_ORGANIZATION ( #31, #208 ) ;
#190 = EDGE_LOOP ( 'NONE', ( #145, #163, #291, #141 ) ) ;
#191 = PERSON_AND_ORGANIZATION ( #31, #208 ) ;
#192 = LINE ( 'NONE', #300, #154 ) ;
#193 = VECTOR ( 'NONE', #105, 39.37007874015748143 ) ;
#194 = CARTESIAN_POINT ( 'NONE',  ( 0.000000000000000000, 0.000000000000000000, 0.000000000000000000 ) ) ;
#195 = EDGE_CURVE ( 'NONE', #315, #95, #200, .T. ) ;
#196 = CARTESIAN_POINT ( 'NONE',  ( 0.01582377120656242031, -2.776203195784636257, 9.750241258186790981E-19 ) ) ;
#197 = DIRECTION ( 'NONE',  ( 0.2588190451025135230, 0.000000000000000000, -0.9659258262890701996 ) ) ;
#198 = CARTESIAN_POINT ( 'NONE',  ( 0.01476377952755871664, 0.000000000000000000, 0.1141542934188320563 ) ) ;
#199 = CC_DESIGN_APPROVAL ( #66, ( #122 ) ) ;
#200 = LINE ( 'NONE', #249, #235 ) ;
#201 = EDGE_CURVE ( 'NONE', #187, #71, #2, .T. ) ;
#202 =( CONVERSION_BASED_UNIT ( 'INCH', #110 ) LENGTH_UNIT ( ) NAMED_UNIT ( #147 ) );
#203 = SHAPE_DEFINITION_REPRESENTATION ( #7, #219 ) ;
#204 = CARTESIAN_POINT ( 'NONE',  ( 0.000000000000000000, -2.776203195784636257, 0.05905511811023622659 ) ) ;
#205 = CC_DESIGN_APPROVAL ( #313, ( #287 ) ) ;
#206 = LINE ( 'NONE', #35, #57 ) ;
#207 = EDGE_CURVE ( 'NONE', #240, #71, #137, .T. ) ;
#208 = ORGANIZATION ( 'UNSPECIFIED', 'UNSPECIFIED', '' ) ;
#209 = EDGE_LOOP ( 'NONE', ( #316, #123, #165, #265 ) ) ;
#210 = CC_DESIGN_PERSON_AND_ORGANIZATION_ASSIGNMENT ( #100, #295, ( #251 ) ) ;
#211 = ORIENTED_EDGE ( 'NONE', *, *, #253, .F. ) ;
#212 = LINE ( 'NONE', #119, #309 ) ;
#213 = EDGE_LOOP ( 'NONE', ( #116, #267, #22, #42 ) ) ;
#214 = DIRECTION ( 'NONE',  ( 1.000000000000000000, 0.000000000000000000, 0.000000000000000000 ) ) ;
#215 = ORIENTED_EDGE ( 'NONE', *, *, #166, .F. ) ;
#216 = EDGE_LOOP ( 'NONE', ( #289, #260, #183, #314 ) ) ;
#217 = DATE_AND_TIME ( #241, #78 ) ;
#218 = PLANE ( 'NONE',  #221 ) ;
#219 = ADVANCED_BREP_SHAPE_REPRESENTATION ( 'ZJ2034', ( #280, #14 ), #134 ) ;
#220 = APPLICATION_PROTOCOL_DEFINITION ( 'international standard', 'config_control_design', 1994, #232 ) ;
#221 = AXIS2_PLACEMENT_3D ( 'NONE', #150, #303, #55 ) ;
#222 = DIRECTION ( 'NONE',  ( 0.9659258262890701996, -0.000000000000000000, 0.2588190451025135230 ) ) ;
#223 = DIRECTION ( 'NONE',  ( -1.000000000000000000, 0.000000000000000000, 0.000000000000000000 ) ) ;
#224 = CARTESIAN_POINT ( 'NONE',  ( 6.412919544768556968, 0.4527559055118110520, 0.05905511811023622659 ) ) ;
#225 = DIRECTION ( 'NONE',  ( 0.000000000000000000, 1.000000000000000000, 0.000000000000000000 ) ) ;
#226 = CC_DESIGN_PERSON_AND_ORGANIZATION_ASSIGNMENT ( #191, #268, ( #122 ) ) ;
#227 = APPROVAL_ROLE ( '' ) ;
#228 = DIRECTION ( 'NONE',  ( -1.000000000000000000, 0.000000000000000000, -0.000000000000000000 ) ) ;
#229 = ADVANCED_FACE ( 'NONE', ( #68 ), #285, .T. ) ;
#230 = FACE_OUTER_BOUND ( 'NONE', #213, .T. ) ;
#231 = VECTOR ( 'NONE', #159, 39.37007874015748143 ) ;
#232 = APPLICATION_CONTEXT ( 'configuration controlled 3d designs of mechanical parts and assemblies' ) ;
#233 = VERTEX_POINT ( 'NONE', #252 ) ;
#234 = ADVANCED_FACE ( 'NONE', ( #230 ), #286, .T. ) ;
#235 = VECTOR ( 'NONE', #33, 39.37007874015748143 ) ;
#236 = CARTESIAN_POINT ( 'NONE',  ( 1.795199850840682343, 0.3504694404979020184, 0.1181102362204724532 ) ) ;
#237 = LINE ( 'NONE', #43, #39 ) ;
#238 = PERSON_AND_ORGANIZATION ( #31, #208 ) ;
#239 = LINE ( 'NONE', #196, #130 ) ;
#240 = VERTEX_POINT ( 'NONE', #157 ) ;
#241 = CALENDAR_DATE ( 2022, 26, 4 ) ;
#242 = DIRECTION ( 'NONE',  ( -0.2588190451025215721, 0.000000000000000000, 0.9659258262890679791 ) ) ;
#243 = CARTESIAN_POINT ( 'NONE',  ( 0.01582377120656194500, 0.3504694404979019628, 0.1181102362204724532 ) ) ;
#244 = APPROVAL_ROLE ( '' ) ;
#245 = CARTESIAN_POINT ( 'NONE',  ( -0.01476377952755910002, 0.000000000000000000, 0.1141542934188318342 ) ) ;
#246 = DESIGN_CONTEXT ( 'detailed design', #296, 'design' ) ;
#247 = VECTOR ( 'NONE', #248, 39.37007874015748854 ) ;
#248 = DIRECTION ( 'NONE',  ( -0.1327881760961079627, 0.8583562635740498159, 0.4955722198350763774 ) ) ;
#249 = CARTESIAN_POINT ( 'NONE',  ( 1.892167470953545649, 0.9772779902855339706, 0.3618880849502471575 ) ) ;
#250 = DIRECTION ( 'NONE',  ( 0.000000000000000000, 1.000000000000000000, 0.000000000000000000 ) ) ;
#251 = PRODUCT_DEFINITION_FORMATION_WITH_SPECIFIED_SOURCE ( 'ANY', '', #136, .NOT_KNOWN. ) ;
#252 = CARTESIAN_POINT ( 'NONE',  ( 1.795199850840682121, 0.000000000000000000, 0.1181102362204724254 ) ) ;
#253 = EDGE_CURVE ( 'NONE', #317, #49, #65, .T. ) ;
#254 = DIRECTION ( 'NONE',  ( -0.9659258262890699775, 0.000000000000000000, 0.2588190451025144112 ) ) ;
#255 = CARTESIAN_POINT ( 'NONE',  ( 0.000000000000000000, 0.000000000000000000, 0.000000000000000000 ) ) ;
#256 = VECTOR ( 'NONE', #101, 39.37007874015748143 ) ;
#257 = ADVANCED_FACE ( 'NONE', ( #38 ), #91, .T. ) ;
#258 = LINE ( 'NONE', #312, #231 ) ;
#259 = ORIENTED_EDGE ( 'NONE', *, *, #24, .T. ) ;
#260 = ORIENTED_EDGE ( 'NONE', *, *, #70, .T. ) ;
#261 = LOCAL_TIME ( 15, 54, 53.00000000000000000, #127 ) ;
#262 = VECTOR ( 'NONE', #111, 39.37007874015748143 ) ;
#263 = ORIENTED_EDGE ( 'NONE', *, *, #207, .T. ) ;
#264 = DATE_TIME_ROLE ( 'creation_date' ) ;
#265 = ORIENTED_EDGE ( 'NONE', *, *, #271, .T. ) ;
#266 = DATE_AND_TIME ( #54, #92 ) ;
#267 = ORIENTED_EDGE ( 'NONE', *, *, #271, .F. ) ;
#268 = PERSON_AND_ORGANIZATION_ROLE ( 'classification_officer' ) ;
#269 = LINE ( 'NONE', #58, #193 ) ;
#270 = PERSON_AND_ORGANIZATION ( #31, #208 ) ;
#271 = EDGE_CURVE ( 'NONE', #188, #16, #10, .T. ) ;
#272 = DIRECTION ( 'NONE',  ( 0.2588190451025144112, -0.000000000000000000, 0.9659258262890699775 ) ) ;
#273 = PERSON_AND_ORGANIZATION_ROLE ( 'design_owner' ) ;
#274 = DIRECTION ( 'NONE',  ( 0.000000000000000000, -0.000000000000000000, 1.000000000000000000 ) ) ;
#275 = LOCAL_TIME ( 15, 54, 53.00000000000000000, #277 ) ;
#276 = DIRECTION ( 'NONE',  ( 0.000000000000000000, 1.000000000000000000, 0.000000000000000000 ) ) ;
#277 = COORDINATED_UNIVERSAL_TIME_OFFSET ( 6, 0, .BEHIND. ) ;
#278 = FACE_OUTER_BOUND ( 'NONE', #148, .T. ) ;
#279 = DIRECTION ( 'NONE',  ( -0.2588190451025204064, 0.000000000000000000, -0.9659258262890684232 ) ) ;
#280 = MANIFOLD_SOLID_BREP ( 'LEFT BEVEL', #15 ) ;
#281 =( NAMED_UNIT ( * ) SI_UNIT ( $, .STERADIAN. ) SOLID_ANGLE_UNIT ( ) );
#282 = ADVANCED_FACE ( 'NONE', ( #60 ), #138, .F. ) ;
#283 = AXIS2_PLACEMENT_3D ( 'NONE', #67, #284, #228 ) ;
#284 = DIRECTION ( 'NONE',  ( 0.000000000000000000, 0.000000000000000000, -1.000000000000000000 ) ) ;
#285 = PLANE ( 'NONE',  #283 ) ;
#286 = PLANE ( 'NONE',  #180 ) ;
#287 = PRODUCT_DEFINITION ( 'UNKNOWN', '', #251, #246 ) ;
#288 = EDGE_CURVE ( 'NONE', #233, #13, #206, .T. ) ;
#289 = ORIENTED_EDGE ( 'NONE', *, *, #290, .T. ) ;
#290 = EDGE_CURVE ( 'NONE', #95, #184, #258, .T. ) ;
#291 = ORIENTED_EDGE ( 'NONE', *, *, #318, .T. ) ;
#292 = MECHANICAL_CONTEXT ( 'NONE', #232, 'mechanical' ) ;
#293 = ORIENTED_EDGE ( 'NONE', *, *, #36, .F. ) ;
#294 = EDGE_LOOP ( 'NONE', ( #215, #293, #47, #77, #99, #93 ) ) ;
#295 = PERSON_AND_ORGANIZATION_ROLE ( 'design_supplier' ) ;
#296 = APPLICATION_CONTEXT ( 'configuration controlled 3d designs of mechanical parts and assemblies' ) ;
#297 = EDGE_LOOP ( 'NONE', ( #45, #140, #69, #18 ) ) ;
#298 = DATE_TIME_ROLE ( 'classification_date' ) ;
#299 = AXIS2_PLACEMENT_3D ( 'NONE', #5, #32, #172 ) ;
#300 = CARTESIAN_POINT ( 'NONE',  ( 1.795199850840681899, -2.904061277052022216, 3.297637840354777838E-16 ) ) ;
#301 = APPROVAL_STATUS ( 'not_yet_approved' ) ;
#302 = CARTESIAN_POINT ( 'NONE',  ( 0.000000000000000000, 0.000000000000000000, 0.1181102362204724532 ) ) ;
#303 = DIRECTION ( 'NONE',  ( 0.9659258262890684232, 0.000000000000000000, -0.2588190451025204064 ) ) ;
#304 = CC_DESIGN_DATE_AND_TIME_ASSIGNMENT ( #21, #264, ( #287 ) ) ;
#305 = DATE_AND_TIME ( #61, #275 ) ;
#306 = CC_DESIGN_APPROVAL ( #120, ( #251 ) ) ;
#307 = CARTESIAN_POINT ( 'NONE',  ( 0.01582377120656197622, 0.3504694404979004085, -2.790214265856178070E-20 ) ) ;
#308 = PLANE ( 'NONE',  #64 ) ;
#309 = VECTOR ( 'NONE', #179, 39.37007874015748854 ) ;
#310 = CARTESIAN_POINT ( 'NONE',  ( 6.412919544768556968, 0.4527559055118110520, 0.05905511811023622659 ) ) ;
#311 = VECTOR ( 'NONE', #250, 39.37007874015748143 ) ;
#312 = CARTESIAN_POINT ( 'NONE',  ( 6.412919544768556968, 0.3504694404979004085, -2.790214265856178070E-20 ) ) ;
#313 = APPROVAL ( #167, 'UNSPECIFIED' ) ;
#314 = ORIENTED_EDGE ( 'NONE', *, *, #195, .T. ) ;
#315 = VERTEX_POINT ( 'NONE', #40 ) ;
#316 = ORIENTED_EDGE ( 'NONE', *, *, #70, .F. ) ;
#317 = VERTEX_POINT ( 'NONE', #90 ) ;
#318 = EDGE_CURVE ( 'NONE', #233, #240, #212, .T. ) ;
#319 = DATE_AND_TIME ( #124, #177 ) ;
#320 = ORIENTED_EDGE ( 'NONE', *, *, #201, .F. ) ;
#321 = PERSON_AND_ORGANIZATION ( #31, #208 ) ;
ENDSEC;
END-ISO-10303-21;
