ISO-10303-21;
HEADER;
FILE_DESCRIPTION (( 'STEP AP203' ),
    '1' );
FILE_NAME ('V363.STEP',
    '2022-04-27T14:07:10',
    ( '' ),
    ( '' ),
    'SwSTEP 2.0',
    'SolidWorks 2020',
    '' );
FILE_SCHEMA (( 'CONFIG_CONTROL_DESIGN' ));
ENDSEC;

DATA;
#1 = CARTESIAN_POINT ( 'NONE',  ( 0.1575000000000000011, 0.000000000000000000, 0.000000000000000000 ) ) ;
#2 = AXIS2_PLACEMENT_3D ( 'NONE', #276, #252, #180 ) ;
#3 = LINE ( 'NONE', #24, #189 ) ;
#4 = CC_DESIGN_PERSON_AND_ORGANIZATION_ASSIGNMENT ( #117, #173, ( #151 ) ) ;
#5 = DATE_AND_TIME ( #56, #197 ) ;
#6 = APPLICATION_CONTEXT ( 'configuration controlled 3d designs of mechanical parts and assemblies' ) ;
#7 =( NAMED_UNIT ( * ) SI_UNIT ( $, .STERADIAN. ) SOLID_ANGLE_UNIT ( ) );
#8 = PERSON_AND_ORGANIZATION_ROLE ( 'creator' ) ;
#9 = UNCERTAINTY_MEASURE_WITH_UNIT (LENGTH_MEASURE( 1.000000000000000082E-05 ), #210, 'distance_accuracy_value', 'NONE');
#10 = EDGE_CURVE ( 'NONE', #44, #178, #204, .T. ) ;
#11 = ORIENTED_EDGE ( 'NONE', *, *, #231, .T. ) ;
#12 = ORIENTED_EDGE ( 'NONE', *, *, #120, .F. ) ;
#13 = ORIENTED_EDGE ( 'NONE', *, *, #222, .T. ) ;
#14 = CC_DESIGN_PERSON_AND_ORGANIZATION_ASSIGNMENT ( #51, #8, ( #127 ) ) ;
#15 = DIRECTION ( 'NONE',  ( -1.000000000000000000, 0.000000000000000000, -0.000000000000000000 ) ) ;
#16 = ORIENTED_EDGE ( 'NONE', *, *, #132, .F. ) ;
#17 = AXIS2_PLACEMENT_3D ( 'NONE', #301, #91, #298 ) ;
#18 = ADVANCED_FACE ( 'NONE', ( #90 ), #74, .T. ) ;
#19 = ORIENTED_EDGE ( 'NONE', *, *, #132, .T. ) ;
#20 = DIRECTION ( 'NONE',  ( 1.000000000000000000, 0.000000000000000000, 0.000000000000000000 ) ) ;
#21 = CARTESIAN_POINT ( 'NONE',  ( 0.000000000000000000, 0.000000000000000000, 0.000000000000000000 ) ) ;
#22 = DIRECTION ( 'NONE',  ( -1.000000000000000000, 0.000000000000000000, 0.000000000000000000 ) ) ;
#23 = APPROVAL_STATUS ( 'not_yet_approved' ) ;
#24 = CARTESIAN_POINT ( 'NONE',  ( 1.148463384565596268, 0.000000000000000000, -0.01199999999999989964 ) ) ;
#25 = CALENDAR_DATE ( 2022, 27, 4 ) ;
#26 = AXIS2_PLACEMENT_3D ( 'NONE', #106, #225, #297 ) ;
#27 = CARTESIAN_POINT ( 'NONE',  ( 0.1575000000000000011, 0.000000000000000000, 0.7059800664451828522 ) ) ;
#28 = EDGE_CURVE ( 'NONE', #290, #86, #190, .T. ) ;
#29 = PRODUCT_DEFINITION_SHAPE ( 'NONE', 'NONE',  #127 ) ;
#30 = COORDINATED_UNIVERSAL_TIME_OFFSET ( 6, 0, .BEHIND. ) ;
#31 = APPROVAL_ROLE ( '' ) ;
#32 = PERSON_AND_ORGANIZATION_ROLE ( 'creator' ) ;
#33 = APPROVAL ( #121, 'UNSPECIFIED' ) ;
#34 = CC_DESIGN_APPROVAL ( #270, ( #127 ) ) ;
#35 = ORIENTED_EDGE ( 'NONE', *, *, #10, .T. ) ;
#36 = ORIENTED_EDGE ( 'NONE', *, *, #231, .F. ) ;
#37 = EDGE_CURVE ( 'NONE', #133, #57, #136, .T. ) ;
#38 = EDGE_LOOP ( 'NONE', ( #271, #177, #291, #155 ) ) ;
#39 = APPLICATION_CONTEXT ( 'configuration controlled 3d designs of mechanical parts and assemblies' ) ;
#40 = VERTEX_POINT ( 'NONE', #278 ) ;
#41 = CARTESIAN_POINT ( 'NONE',  ( 0.000000000000000000, 0.000000000000000000, 0.000000000000000000 ) ) ;
#42 = CARTESIAN_POINT ( 'NONE',  ( 1.148463384565596268, 0.000000000000000000, -0.01199999999999989964 ) ) ;
#43 = ADVANCED_FACE ( 'NONE', ( #70, #137 ), #65, .F. ) ;
#44 = VERTEX_POINT ( 'NONE', #221 ) ;
#45 = CARTESIAN_POINT ( 'NONE',  ( 0.000000000000000000, 0.000000000000000000, -0.01199999999999989964 ) ) ;
#46 = CARTESIAN_POINT ( 'NONE',  ( 0.000000000000000000, 0.1575000000000000011, 0.000000000000000000 ) ) ;
#47 = DIRECTION ( 'NONE',  ( -0.000000000000000000, -0.000000000000000000, 1.000000000000000000 ) ) ;
#48 = LINE ( 'NONE', #27, #112 ) ;
#49 = COORDINATED_UNIVERSAL_TIME_OFFSET ( 6, 0, .BEHIND. ) ;
#50 = CARTESIAN_POINT ( 'NONE',  ( 0.000000000000000000, 0.000000000000000000, -0.005999999999999881296 ) ) ;
#51 = PERSON_AND_ORGANIZATION ( #58, #87 ) ;
#52 = DIRECTION ( 'NONE',  ( 1.000000000000000000, 0.000000000000000000, 0.000000000000000000 ) ) ;
#53 = APPROVAL_PERSON_ORGANIZATION ( #98, #270, #119 ) ;
#54 = DIRECTION ( 'NONE',  ( -0.000000000000000000, -0.000000000000000000, 1.000000000000000000 ) ) ;
#55 = PERSON_AND_ORGANIZATION ( #58, #87 ) ;
#56 = CALENDAR_DATE ( 2022, 27, 4 ) ;
#57 = VERTEX_POINT ( 'NONE', #92 ) ;
#58 = PERSON ( 'UNSPECIFIED', 'UNSPECIFIED', 'UNSPECIFIED', ('UNSPECIFIED'), ('UNSPECIFIED'), ('UNSPECIFIED') ) ;
#59 = AXIS2_PLACEMENT_3D ( 'NONE', #115, #54, #209 ) ;
#60 = VECTOR ( 'NONE', #263, 39.37007874015748143 ) ;
#61 = ORIENTED_EDGE ( 'NONE', *, *, #88, .F. ) ;
#62 = ORIENTED_EDGE ( 'NONE', *, *, #37, .T. ) ;
#63 = EDGE_LOOP ( 'NONE', ( #62, #185, #131, #128 ) ) ;
#64 = DIRECTION ( 'NONE',  ( 0.000000000000000000, 0.000000000000000000, -1.000000000000000000 ) ) ;
#65 = PLANE ( 'NONE',  #93 ) ;
#66 = ADVANCED_FACE ( 'NONE', ( #299 ), #144, .T. ) ;
#67 = FACE_BOUND ( 'NONE', #249, .T. ) ;
#68 = DIRECTION ( 'NONE',  ( -0.000000000000000000, -0.000000000000000000, 1.000000000000000000 ) ) ;
#69 = EDGE_CURVE ( 'NONE', #57, #133, #161, .T. ) ;
#70 = FACE_OUTER_BOUND ( 'NONE', #174, .T. ) ;
#71 = DIRECTION ( 'NONE',  ( 0.000000000000000000, 0.000000000000000000, -1.000000000000000000 ) ) ;
#72 = CARTESIAN_POINT ( 'NONE',  ( 0.000000000000000000, 0.000000000000000000, -0.01200000000000003668 ) ) ;
#73 = AXIS2_PLACEMENT_3D ( 'NONE', #50, #229, #75 ) ;
#74 = CONICAL_SURFACE ( 'NONE', #283, 1.148463384565596268, 1.378810109075514490 ) ;
#75 = DIRECTION ( 'NONE',  ( 1.000000000000000000, 0.000000000000000000, 0.000000000000000000 ) ) ;
#76 = DATE_AND_TIME ( #281, #289 ) ;
#77 =( NAMED_UNIT ( * ) PLANE_ANGLE_UNIT ( ) SI_UNIT ( $, .RADIAN. ) );
#78 = ADVANCED_FACE ( 'NONE', ( #201 ), #300, .T. ) ;
#79 = MECHANICAL_CONTEXT ( 'NONE', #6, 'mechanical' ) ;
#80 = DESIGN_CONTEXT ( 'detailed design', #39, 'design' ) ;
#81 = ORIENTED_EDGE ( 'NONE', *, *, #182, .F. ) ;
#82 = LOCAL_TIME ( 9, 7, 10.00000000000000000, #148 ) ;
#83 = VERTEX_POINT ( 'NONE', #205 ) ;
#84 = ADVANCED_FACE ( 'NONE', ( #67, #157 ), #223, .F. ) ;
#85 = ORIENTED_EDGE ( 'NONE', *, *, #292, .F. ) ;
#86 = VERTEX_POINT ( 'NONE', #141 ) ;
#87 = ORGANIZATION ( 'UNSPECIFIED', 'UNSPECIFIED', '' ) ;
#88 = EDGE_CURVE ( 'NONE', #86, #290, #130, .T. ) ;
#89 = DIRECTION ( 'NONE',  ( -0.000000000000000000, -0.000000000000000000, 1.000000000000000000 ) ) ;
#90 = FACE_OUTER_BOUND ( 'NONE', #63, .T. ) ;
#91 = DIRECTION ( 'NONE',  ( -0.000000000000000000, -0.000000000000000000, 1.000000000000000000 ) ) ;
#92 = CARTESIAN_POINT ( 'NONE',  ( -1.148463384565596268, 1.425362792672288545E-16, -0.01199999999999989964 ) ) ;
#93 = AXIS2_PLACEMENT_3D ( 'NONE', #163, #108, #187 ) ;
#94 = LINE ( 'NONE', #159, #138 ) ;
#95 = LINE ( 'NONE', #279, #60 ) ;
#96 = CIRCLE ( 'NONE', #245, 0.1575000000000000011 ) ;
#97 = COORDINATED_UNIVERSAL_TIME_OFFSET ( 6, 0, .BEHIND. ) ;
#98 = PERSON_AND_ORGANIZATION ( #58, #87 ) ;
#99 = CALENDAR_DATE ( 2022, 27, 4 ) ;
#100 = APPLICATION_PROTOCOL_DEFINITION ( 'international standard', 'config_control_design', 1994, #6 ) ;
#101 = DATE_AND_TIME ( #286, #82 ) ;
#102 = CC_DESIGN_APPROVAL ( #212, ( #151 ) ) ;
#103 = ORIENTED_EDGE ( 'NONE', *, *, #28, .F. ) ;
#104 = ORIENTED_EDGE ( 'NONE', *, *, #120, .T. ) ;
#105 = LOCAL_TIME ( 9, 7, 10.00000000000000000, #30 ) ;
#106 = CARTESIAN_POINT ( 'NONE',  ( 0.000000000000000000, 0.000000000000000000, -0.01199999999999989964 ) ) ;
#107 = CIRCLE ( 'NONE', #73, 1.179330708661417093 ) ;
#108 = DIRECTION ( 'NONE',  ( 0.000000000000000000, -0.000000000000000000, 1.000000000000000000 ) ) ;
#109 = CONICAL_SURFACE ( 'NONE', #224, 1.179330708661417093, 1.378810109075518708 ) ;
#110 = DIRECTION ( 'NONE',  ( -1.000000000000000000, 0.000000000000000000, 0.000000000000000000 ) ) ;
#111 = DIRECTION ( 'NONE',  ( 1.000000000000000000, 0.000000000000000000, 0.000000000000000000 ) ) ;
#112 = VECTOR ( 'NONE', #214, 39.37007874015748143 ) ;
#113 = DIRECTION ( 'NONE',  ( -0.000000000000000000, -0.000000000000000000, 1.000000000000000000 ) ) ;
#114 = AXIS2_PLACEMENT_3D ( 'NONE', #274, #64, #110 ) ;
#115 = CARTESIAN_POINT ( 'NONE',  ( 0.000000000000000000, 0.000000000000000000, 0.7059800664451828522 ) ) ;
#116 = LENGTH_MEASURE_WITH_UNIT ( LENGTH_MEASURE( 0.02539999999999999897 ), #235 );
#117 = PERSON_AND_ORGANIZATION ( #58, #87 ) ;
#118 = FACE_OUTER_BOUND ( 'NONE', #295, .T. ) ;
#119 = APPROVAL_ROLE ( '' ) ;
#120 = EDGE_CURVE ( 'NONE', #83, #44, #240, .T. ) ;
#121 = APPROVAL_STATUS ( 'not_yet_approved' ) ;
#122 = EDGE_LOOP ( 'NONE', ( #104, #19 ) ) ;
#123 = CIRCLE ( 'NONE', #184, 0.1575000000000000011 ) ;
#124 = SECURITY_CLASSIFICATION ( '', '', #170 ) ;
#125 = ADVANCED_BREP_SHAPE_REPRESENTATION ( 'V363', ( #275, #135 ), #254 ) ;
#126 = ORIENTED_EDGE ( 'NONE', *, *, #10, .F. ) ;
#127 = PRODUCT_DEFINITION ( 'UNKNOWN', '', #151, #80 ) ;
#128 = ORIENTED_EDGE ( 'NONE', *, *, #247, .F. ) ;
#129 = EDGE_LOOP ( 'NONE', ( #126, #12, #200, #220 ) ) ;
#130 = CIRCLE ( 'NONE', #191, 0.1575000000000000011 ) ;
#131 = ORIENTED_EDGE ( 'NONE', *, *, #222, .F. ) ;
#132 = EDGE_CURVE ( 'NONE', #44, #83, #269, .T. ) ;
#133 = VERTEX_POINT ( 'NONE', #42 ) ;
#134 = CARTESIAN_POINT ( 'NONE',  ( 1.179330708661417093, 1.444263577498384384E-16, -0.005999999999999881296 ) ) ;
#135 = AXIS2_PLACEMENT_3D ( 'NONE', #169, #260, #52 ) ;
#136 = CIRCLE ( 'NONE', #293, 1.148463384565596268 ) ;
#137 = FACE_BOUND ( 'NONE', #150, .T. ) ;
#138 = VECTOR ( 'NONE', #68, 39.37007874015748143 ) ;
#139 = PRODUCT_RELATED_PRODUCT_CATEGORY ( 'detail', '', ( #241 ) ) ;
#140 = DIRECTION ( 'NONE',  ( 1.000000000000000000, 0.000000000000000000, 0.000000000000000000 ) ) ;
#141 = CARTESIAN_POINT ( 'NONE',  ( -0.1575000000000000011, 1.928818708657081344E-17, 0.000000000000000000 ) ) ;
#142 = CC_DESIGN_APPROVAL ( #33, ( #124 ) ) ;
#143 = CARTESIAN_POINT ( 'NONE',  ( 0.000000000000000000, 0.000000000000000000, -0.005999999999999881296 ) ) ;
#144 = CONICAL_SURFACE ( 'NONE', #2, 1.148463384565596268, 1.378810109075514490 ) ;
#145 = DIRECTION ( 'NONE',  ( 1.000000000000000000, 0.000000000000000000, 0.000000000000000000 ) ) ;
#146 = DATE_TIME_ROLE ( 'creation_date' ) ;
#147 = DIRECTION ( 'NONE',  ( -0.000000000000000000, -0.000000000000000000, 1.000000000000000000 ) ) ;
#148 = COORDINATED_UNIVERSAL_TIME_OFFSET ( 6, 0, .BEHIND. ) ;
#149 = DATE_TIME_ROLE ( 'classification_date' ) ;
#150 = EDGE_LOOP ( 'NONE', ( #11, #217 ) ) ;
#151 = PRODUCT_DEFINITION_FORMATION_WITH_SPECIFIED_SOURCE ( 'ANY', '', #241, .NOT_KNOWN. ) ;
#152 = AXIS2_PLACEMENT_3D ( 'NONE', #21, #273, #208 ) ;
#153 = ORIENTED_EDGE ( 'NONE', *, *, #37, .F. ) ;
#154 = CC_DESIGN_DATE_AND_TIME_ASSIGNMENT ( #5, #149, ( #124 ) ) ;
#155 = ORIENTED_EDGE ( 'NONE', *, *, #256, .F. ) ;
#156 = CC_DESIGN_SECURITY_CLASSIFICATION ( #124, ( #151 ) ) ;
#157 = FACE_OUTER_BOUND ( 'NONE', #122, .T. ) ;
#158 = ORIENTED_EDGE ( 'NONE', *, *, #69, .F. ) ;
#159 = CARTESIAN_POINT ( 'NONE',  ( -0.1575000000000000011, 1.928818708657081344E-17, 0.7059800664451828522 ) ) ;
#160 = CC_DESIGN_PERSON_AND_ORGANIZATION_ASSIGNMENT ( #192, #213, ( #124 ) ) ;
#161 = CIRCLE ( 'NONE', #26, 1.148463384565596268 ) ;
#162 = LINE ( 'NONE', #251, #284 ) ;
#163 = CARTESIAN_POINT ( 'NONE',  ( 0.000000000000000000, 1.148463384565596268, -0.01199999999999995688 ) ) ;
#164 = CARTESIAN_POINT ( 'NONE',  ( -1.179330708661417093, 0.000000000000000000, -0.005999999999999881296 ) ) ;
#165 = CC_DESIGN_PERSON_AND_ORGANIZATION_ASSIGNMENT ( #168, #32, ( #151 ) ) ;
#166 = APPROVAL_PERSON_ORGANIZATION ( #238, #212, #31 ) ;
#167 = DIRECTION ( 'NONE',  ( 1.000000000000000000, 0.000000000000000000, 0.000000000000000000 ) ) ;
#168 = PERSON_AND_ORGANIZATION ( #58, #87 ) ;
#169 = CARTESIAN_POINT ( 'NONE',  ( 0.000000000000000000, 0.000000000000000000, 0.000000000000000000 ) ) ;
#170 = SECURITY_CLASSIFICATION_LEVEL ( 'unclassified' ) ;
#171 = APPROVAL_DATE_TIME ( #76, #212 ) ;
#172 = APPLICATION_PROTOCOL_DEFINITION ( 'international standard', 'config_control_design', 1994, #39 ) ;
#173 = PERSON_AND_ORGANIZATION_ROLE ( 'design_supplier' ) ;
#174 = EDGE_LOOP ( 'NONE', ( #153, #158 ) ) ;
#175 = CC_DESIGN_PERSON_AND_ORGANIZATION_ASSIGNMENT ( #55, #264, ( #241 ) ) ;
#176 = ORIENTED_EDGE ( 'NONE', *, *, #247, .T. ) ;
#177 = ORIENTED_EDGE ( 'NONE', *, *, #182, .T. ) ;
#178 = VERTEX_POINT ( 'NONE', #134 ) ;
#179 = AXIS2_PLACEMENT_3D ( 'NONE', #46, #248, #15 ) ;
#180 = DIRECTION ( 'NONE',  ( 1.000000000000000000, 0.000000000000000000, 0.000000000000000000 ) ) ;
#181 = CARTESIAN_POINT ( 'NONE',  ( 0.000000000000000000, 0.000000000000000000, -0.01199999999999989964 ) ) ;
#182 = EDGE_CURVE ( 'NONE', #40, #86, #94, .T. ) ;
#183 = DIRECTION ( 'NONE',  ( 1.000000000000000000, 0.000000000000000000, 0.000000000000000000 ) ) ;
#184 = AXIS2_PLACEMENT_3D ( 'NONE', #72, #258, #167 ) ;
#185 = ORIENTED_EDGE ( 'NONE', *, *, #186, .T. ) ;
#186 = EDGE_CURVE ( 'NONE', #57, #218, #162, .T. ) ;
#187 = DIRECTION ( 'NONE',  ( 1.000000000000000000, 0.000000000000000000, 0.000000000000000000 ) ) ;
#188 = DIRECTION ( 'NONE',  ( 1.000000000000000000, 0.000000000000000000, 0.000000000000000000 ) ) ;
#189 = VECTOR ( 'NONE', #215, 39.37007874015748143 ) ;
#190 = CIRCLE ( 'NONE', #268, 0.1575000000000000011 ) ;
#191 = AXIS2_PLACEMENT_3D ( 'NONE', #227, #296, #140 ) ;
#192 = PERSON_AND_ORGANIZATION ( #58, #87 ) ;
#193 = FACE_OUTER_BOUND ( 'NONE', #38, .T. ) ;
#194 = APPROVAL_DATE_TIME ( #233, #33 ) ;
#195 = CYLINDRICAL_SURFACE ( 'NONE', #202, 0.1575000000000000011 ) ;
#196 = COORDINATED_UNIVERSAL_TIME_OFFSET ( 6, 0, .BEHIND. ) ;
#197 = LOCAL_TIME ( 9, 7, 10.00000000000000000, #196 ) ;
#198 = PERSON_AND_ORGANIZATION ( #58, #87 ) ;
#199 = ADVANCED_FACE ( 'NONE', ( #118 ), #109, .T. ) ;
#200 = ORIENTED_EDGE ( 'NONE', *, *, #207, .T. ) ;
#201 = FACE_OUTER_BOUND ( 'NONE', #129, .T. ) ;
#202 = AXIS2_PLACEMENT_3D ( 'NONE', #253, #287, #145 ) ;
#203 = CLOSED_SHELL ( 'NONE', ( #18, #199, #216, #237, #84, #78, #66, #43 ) ) ;
#204 = LINE ( 'NONE', #226, #250 ) ;
#205 = CARTESIAN_POINT ( 'NONE',  ( -1.148463384565596268, 0.000000000000000000, 0.000000000000000000 ) ) ;
#206 = DIRECTION ( 'NONE',  ( -0.000000000000000000, -0.000000000000000000, 1.000000000000000000 ) ) ;
#207 = EDGE_CURVE ( 'NONE', #83, #218, #95, .T. ) ;
#208 = DIRECTION ( 'NONE',  ( 1.000000000000000000, 0.000000000000000000, 0.000000000000000000 ) ) ;
#209 = DIRECTION ( 'NONE',  ( 1.000000000000000000, 0.000000000000000000, 0.000000000000000000 ) ) ;
#210 =( CONVERSION_BASED_UNIT ( 'INCH', #116 ) LENGTH_UNIT ( ) NAMED_UNIT ( #288 ) );
#211 = CIRCLE ( 'NONE', #277, 1.179330708661417093 ) ;
#212 = APPROVAL ( #230, 'UNSPECIFIED' ) ;
#213 = PERSON_AND_ORGANIZATION_ROLE ( 'classification_officer' ) ;
#214 = DIRECTION ( 'NONE',  ( -0.000000000000000000, -0.000000000000000000, 1.000000000000000000 ) ) ;
#215 = DIRECTION ( 'NONE',  ( 0.9816271834476628655, 0.000000000000000000, 0.1908089953765505775 ) ) ;
#216 = ADVANCED_FACE ( 'NONE', ( #193 ), #195, .F. ) ;
#217 = ORIENTED_EDGE ( 'NONE', *, *, #242, .T. ) ;
#218 = VERTEX_POINT ( 'NONE', #164 ) ;
#219 = ORIENTED_EDGE ( 'NONE', *, *, #256, .T. ) ;
#220 = ORIENTED_EDGE ( 'NONE', *, *, #292, .T. ) ;
#221 = CARTESIAN_POINT ( 'NONE',  ( 1.148463384565596268, 1.425362792672288545E-16, 0.000000000000000000 ) ) ;
#222 = EDGE_CURVE ( 'NONE', #178, #218, #211, .T. ) ;
#223 = PLANE ( 'NONE',  #179 ) ;
#224 = AXIS2_PLACEMENT_3D ( 'NONE', #302, #71, #22 ) ;
#225 = DIRECTION ( 'NONE',  ( -0.000000000000000000, -0.000000000000000000, 1.000000000000000000 ) ) ;
#226 = CARTESIAN_POINT ( 'NONE',  ( 1.179330708661417093, 1.444263577498384384E-16, -0.005999999999999881296 ) ) ;
#227 = CARTESIAN_POINT ( 'NONE',  ( 0.000000000000000000, 0.000000000000000000, 0.000000000000000000 ) ) ;
#228 = DIRECTION ( 'NONE',  ( 1.000000000000000000, 0.000000000000000000, 0.000000000000000000 ) ) ;
#229 = DIRECTION ( 'NONE',  ( -0.000000000000000000, -0.000000000000000000, 1.000000000000000000 ) ) ;
#230 = APPROVAL_STATUS ( 'not_yet_approved' ) ;
#231 = EDGE_CURVE ( 'NONE', #239, #40, #96, .T. ) ;
#232 = CYLINDRICAL_SURFACE ( 'NONE', #59, 0.1575000000000000011 ) ;
#233 = DATE_AND_TIME ( #99, #105 ) ;
#234 = APPROVAL_PERSON_ORGANIZATION ( #198, #33, #261 ) ;
#235 =( LENGTH_UNIT ( ) NAMED_UNIT ( * ) SI_UNIT ( $, .METRE. ) );
#236 = DIRECTION ( 'NONE',  ( -0.9816271834476628655, 1.202146588165211980E-16, 0.1908089953765505775 ) ) ;
#237 = ADVANCED_FACE ( 'NONE', ( #255 ), #232, .F. ) ;
#238 = PERSON_AND_ORGANIZATION ( #58, #87 ) ;
#239 = VERTEX_POINT ( 'NONE', #280 ) ;
#240 = CIRCLE ( 'NONE', #152, 1.148463384565596268 ) ;
#241 = PRODUCT ( 'V363', 'V363', '', ( #79 ) ) ;
#242 = EDGE_CURVE ( 'NONE', #40, #239, #123, .T. ) ;
#243 = EDGE_LOOP ( 'NONE', ( #81, #36, #219, #266 ) ) ;
#244 = ORIENTED_EDGE ( 'NONE', *, *, #69, .T. ) ;
#245 = AXIS2_PLACEMENT_3D ( 'NONE', #285, #147, #188 ) ;
#246 = DIRECTION ( 'NONE',  ( 0.9816271834476635316, 1.202146588165212967E-16, -0.1908089953765464419 ) ) ;
#247 = EDGE_CURVE ( 'NONE', #133, #178, #3, .T. ) ;
#248 = DIRECTION ( 'NONE',  ( 0.000000000000000000, 0.000000000000000000, -1.000000000000000000 ) ) ;
#249 = EDGE_LOOP ( 'NONE', ( #103, #61 ) ) ;
#250 = VECTOR ( 'NONE', #246, 39.37007874015748143 ) ;
#251 = CARTESIAN_POINT ( 'NONE',  ( -1.148463384565596268, 1.406462007846193200E-16, -0.01199999999999989964 ) ) ;
#252 = DIRECTION ( 'NONE',  ( -0.000000000000000000, -0.000000000000000000, 1.000000000000000000 ) ) ;
#253 = CARTESIAN_POINT ( 'NONE',  ( 0.000000000000000000, 0.000000000000000000, 0.7059800664451828522 ) ) ;
#254 =( GEOMETRIC_REPRESENTATION_CONTEXT ( 3 ) GLOBAL_UNCERTAINTY_ASSIGNED_CONTEXT ( ( #9 ) ) GLOBAL_UNIT_ASSIGNED_CONTEXT ( ( #210, #77, #7 ) ) REPRESENTATION_CONTEXT ( 'NONE', 'WORKASPACE' ) );
#255 = FACE_OUTER_BOUND ( 'NONE', #243, .T. ) ;
#256 = EDGE_CURVE ( 'NONE', #239, #290, #48, .T. ) ;
#257 = APPROVAL_DATE_TIME ( #101, #270 ) ;
#258 = DIRECTION ( 'NONE',  ( -0.000000000000000000, -0.000000000000000000, 1.000000000000000000 ) ) ;
#259 = SHAPE_DEFINITION_REPRESENTATION ( #29, #125 ) ;
#260 = DIRECTION ( 'NONE',  ( 0.000000000000000000, 0.000000000000000000, 1.000000000000000000 ) ) ;
#261 = APPROVAL_ROLE ( '' ) ;
#262 = CC_DESIGN_DATE_AND_TIME_ASSIGNMENT ( #265, #146, ( #127 ) ) ;
#263 = DIRECTION ( 'NONE',  ( -0.9816271834476635316, 0.000000000000000000, -0.1908089953765464419 ) ) ;
#264 = PERSON_AND_ORGANIZATION_ROLE ( 'design_owner' ) ;
#265 = DATE_AND_TIME ( #25, #282 ) ;
#266 = ORIENTED_EDGE ( 'NONE', *, *, #28, .T. ) ;
#267 = ORIENTED_EDGE ( 'NONE', *, *, #186, .F. ) ;
#268 = AXIS2_PLACEMENT_3D ( 'NONE', #41, #113, #183 ) ;
#269 = CIRCLE ( 'NONE', #17, 1.148463384565596268 ) ;
#270 = APPROVAL ( #23, 'UNSPECIFIED' ) ;
#271 = ORIENTED_EDGE ( 'NONE', *, *, #242, .F. ) ;
#272 = ORIENTED_EDGE ( 'NONE', *, *, #207, .F. ) ;
#273 = DIRECTION ( 'NONE',  ( -0.000000000000000000, -0.000000000000000000, 1.000000000000000000 ) ) ;
#274 = CARTESIAN_POINT ( 'NONE',  ( 0.000000000000000000, 0.000000000000000000, -0.005999999999999881296 ) ) ;
#275 = MANIFOLD_SOLID_BREP ( 'Base-Revolve', #203 ) ;
#276 = CARTESIAN_POINT ( 'NONE',  ( 0.000000000000000000, 0.000000000000000000, -0.01199999999999989964 ) ) ;
#277 = AXIS2_PLACEMENT_3D ( 'NONE', #143, #47, #228 ) ;
#278 = CARTESIAN_POINT ( 'NONE',  ( -0.1575000000000000011, 1.928818708657081344E-17, -0.01200000000000003668 ) ) ;
#279 = CARTESIAN_POINT ( 'NONE',  ( -1.179330708661417093, 0.000000000000000000, -0.005999999999999881296 ) ) ;
#280 = CARTESIAN_POINT ( 'NONE',  ( 0.1575000000000000011, 0.000000000000000000, -0.01200000000000003668 ) ) ;
#281 = CALENDAR_DATE ( 2022, 27, 4 ) ;
#282 = LOCAL_TIME ( 9, 7, 10.00000000000000000, #97 ) ;
#283 = AXIS2_PLACEMENT_3D ( 'NONE', #181, #206, #20 ) ;
#284 = VECTOR ( 'NONE', #236, 39.37007874015748143 ) ;
#285 = CARTESIAN_POINT ( 'NONE',  ( 0.000000000000000000, 0.000000000000000000, -0.01200000000000003668 ) ) ;
#286 = CALENDAR_DATE ( 2022, 27, 4 ) ;
#287 = DIRECTION ( 'NONE',  ( -0.000000000000000000, -0.000000000000000000, 1.000000000000000000 ) ) ;
#288 = DIMENSIONAL_EXPONENTS ( 1.000000000000000000, 0.000000000000000000, 0.000000000000000000, 0.000000000000000000, 0.000000000000000000, 0.000000000000000000, 0.000000000000000000 ) ;
#289 = LOCAL_TIME ( 9, 7, 10.00000000000000000, #49 ) ;
#290 = VERTEX_POINT ( 'NONE', #1 ) ;
#291 = ORIENTED_EDGE ( 'NONE', *, *, #88, .T. ) ;
#292 = EDGE_CURVE ( 'NONE', #218, #178, #107, .T. ) ;
#293 = AXIS2_PLACEMENT_3D ( 'NONE', #45, #89, #111 ) ;
#294 = EDGE_LOOP ( 'NONE', ( #267, #244, #176, #85 ) ) ;
#295 = EDGE_LOOP ( 'NONE', ( #16, #35, #13, #272 ) ) ;
#296 = DIRECTION ( 'NONE',  ( -0.000000000000000000, -0.000000000000000000, 1.000000000000000000 ) ) ;
#297 = DIRECTION ( 'NONE',  ( 1.000000000000000000, 0.000000000000000000, 0.000000000000000000 ) ) ;
#298 = DIRECTION ( 'NONE',  ( 1.000000000000000000, 0.000000000000000000, 0.000000000000000000 ) ) ;
#299 = FACE_OUTER_BOUND ( 'NONE', #294, .T. ) ;
#300 = CONICAL_SURFACE ( 'NONE', #114, 1.179330708661417093, 1.378810109075518708 ) ;
#301 = CARTESIAN_POINT ( 'NONE',  ( 0.000000000000000000, 0.000000000000000000, 0.000000000000000000 ) ) ;
#302 = CARTESIAN_POINT ( 'NONE',  ( 0.000000000000000000, 0.000000000000000000, -0.005999999999999881296 ) ) ;
ENDSEC;
END-ISO-10303-21;
