ISO-10303-21;
HEADER;
FILE_DESCRIPTION (( 'STEP AP203' ),
    '1' );
FILE_NAME ('V157.STEP',
    '2022-04-27T14:04:12',
    ( '' ),
    ( '' ),
    'SwSTEP 2.0',
    'SolidWorks 2020',
    '' );
FILE_SCHEMA (( 'CONFIG_CONTROL_DESIGN' ));
ENDSEC;

DATA;
#1 = CIRCLE ( 'NONE', #215, 0.5198826759041781376 ) ;
#2 = ORIENTED_EDGE ( 'NONE', *, *, #43, .F. ) ;
#3 = CARTESIAN_POINT ( 'NONE',  ( 0.000000000000000000, 0.09950000000000000511, 0.000000000000000000 ) ) ;
#4 = ORIENTED_EDGE ( 'NONE', *, *, #158, .T. ) ;
#5 = FACE_OUTER_BOUND ( 'NONE', #90, .T. ) ;
#6 = PERSON_AND_ORGANIZATION ( #270, #164 ) ;
#7 = EDGE_LOOP ( 'NONE', ( #25, #159, #207, #65 ) ) ;
#8 = CIRCLE ( 'NONE', #281, 0.5198826759041781376 ) ;
#9 = LOCAL_TIME ( 9, 4, 12.00000000000000000, #155 ) ;
#10 = CYLINDRICAL_SURFACE ( 'NONE', #133, 0.09950000000000000511 ) ;
#11 = CARTESIAN_POINT ( 'NONE',  ( 0.000000000000000000, 0.000000000000000000, 0.000000000000000000 ) ) ;
#12 = CARTESIAN_POINT ( 'NONE',  ( 0.09950000000000000511, 0.000000000000000000, -0.01200000000000003668 ) ) ;
#13 = CARTESIAN_POINT ( 'NONE',  ( 0.000000000000000000, 0.000000000000000000, -0.01200000000000003668 ) ) ;
#14 = SECURITY_CLASSIFICATION_LEVEL ( 'unclassified' ) ;
#15 = CC_DESIGN_PERSON_AND_ORGANIZATION_ASSIGNMENT ( #57, #125, ( #235 ) ) ;
#16 = APPROVAL_DATE_TIME ( #79, #275 ) ;
#17 = DIRECTION ( 'NONE',  ( 0.000000000000000000, 0.000000000000000000, -1.000000000000000000 ) ) ;
#18 = ORIENTED_EDGE ( 'NONE', *, *, #106, .T. ) ;
#19 = DIRECTION ( 'NONE',  ( 1.000000000000000000, 0.000000000000000000, 0.000000000000000000 ) ) ;
#20 = CIRCLE ( 'NONE', #191, 0.5198826759041781376 ) ;
#21 = AXIS2_PLACEMENT_3D ( 'NONE', #11, #169, #101 ) ;
#22 = LINE ( 'NONE', #89, #260 ) ;
#23 = EDGE_LOOP ( 'NONE', ( #148, #252 ) ) ;
#24 = DIRECTION ( 'NONE',  ( -0.000000000000000000, -0.000000000000000000, 1.000000000000000000 ) ) ;
#25 = ORIENTED_EDGE ( 'NONE', *, *, #33, .T. ) ;
#26 = ORIENTED_EDGE ( 'NONE', *, *, #299, .F. ) ;
#27 = FACE_OUTER_BOUND ( 'NONE', #132, .T. ) ;
#28 = DIRECTION ( 'NONE',  ( 0.000000000000000000, 0.000000000000000000, -1.000000000000000000 ) ) ;
#29 = DIRECTION ( 'NONE',  ( -0.000000000000000000, -0.000000000000000000, 1.000000000000000000 ) ) ;
#30 = APPROVAL_PERSON_ORGANIZATION ( #36, #160, #116 ) ;
#31 = DATE_AND_TIME ( #202, #232 ) ;
#32 = DIRECTION ( 'NONE',  ( 1.000000000000000000, 0.000000000000000000, 0.000000000000000000 ) ) ;
#33 = EDGE_CURVE ( 'NONE', #181, #52, #1, .T. ) ;
#34 =( NAMED_UNIT ( * ) PLANE_ANGLE_UNIT ( ) SI_UNIT ( $, .RADIAN. ) );
#35 = DIRECTION ( 'NONE',  ( -0.000000000000000000, -0.000000000000000000, 1.000000000000000000 ) ) ;
#36 = PERSON_AND_ORGANIZATION ( #270, #164 ) ;
#37 = PERSON_AND_ORGANIZATION_ROLE ( 'classification_officer' ) ;
#38 = CLOSED_SHELL ( 'NONE', ( #111, #284, #280, #45, #221, #153, #205, #186 ) ) ;
#39 = EDGE_CURVE ( 'NONE', #93, #242, #212, .T. ) ;
#40 = ORIENTED_EDGE ( 'NONE', *, *, #256, .T. ) ;
#41 = CARTESIAN_POINT ( 'NONE',  ( 0.000000000000000000, 0.000000000000000000, -0.01199999999999989964 ) ) ;
#42 = AXIS2_PLACEMENT_3D ( 'NONE', #243, #17, #82 ) ;
#43 = EDGE_CURVE ( 'NONE', #93, #217, #72, .T. ) ;
#44 = MANIFOLD_SOLID_BREP ( 'Base-Revolve', #38 ) ;
#45 = ADVANCED_FACE ( 'NONE', ( #96 ), #198, .F. ) ;
#46 = CIRCLE ( 'NONE', #142, 0.09950000000000000511 ) ;
#47 = DIRECTION ( 'NONE',  ( -0.000000000000000000, -0.000000000000000000, 1.000000000000000000 ) ) ;
#48 = DIRECTION ( 'NONE',  ( 1.000000000000000000, 0.000000000000000000, 0.000000000000000000 ) ) ;
#49 = EDGE_LOOP ( 'NONE', ( #117, #81, #264, #123 ) ) ;
#50 = DIRECTION ( 'NONE',  ( 1.000000000000000000, 0.000000000000000000, 0.000000000000000000 ) ) ;
#51 = CALENDAR_DATE ( 2022, 27, 4 ) ;
#52 = VERTEX_POINT ( 'NONE', #150 ) ;
#53 = EDGE_CURVE ( 'NONE', #196, #287, #78, .T. ) ;
#54 = APPROVAL_STATUS ( 'not_yet_approved' ) ;
#55 = DIRECTION ( 'NONE',  ( 1.000000000000000000, 0.000000000000000000, 0.000000000000000000 ) ) ;
#56 = DIRECTION ( 'NONE',  ( -0.000000000000000000, -0.000000000000000000, 1.000000000000000000 ) ) ;
#57 = PERSON_AND_ORGANIZATION ( #270, #164 ) ;
#58 = APPROVAL_DATE_TIME ( #225, #135 ) ;
#59 = CC_DESIGN_PERSON_AND_ORGANIZATION_ASSIGNMENT ( #204, #76, ( #95 ) ) ;
#60 = PERSON_AND_ORGANIZATION ( #270, #164 ) ;
#61 = DIRECTION ( 'NONE',  ( 1.000000000000000000, 0.000000000000000000, 0.000000000000000000 ) ) ;
#62 = VERTEX_POINT ( 'NONE', #238 ) ;
#63 = AXIS2_PLACEMENT_3D ( 'NONE', #189, #223, #50 ) ;
#64 = CARTESIAN_POINT ( 'NONE',  ( 0.000000000000000000, 0.000000000000000000, -0.005999999999999881296 ) ) ;
#65 = ORIENTED_EDGE ( 'NONE', *, *, #87, .F. ) ;
#66 = DIRECTION ( 'NONE',  ( 0.9816271834476637537, 0.000000000000000000, 0.1908089953765453040 ) ) ;
#67 = ORIENTED_EDGE ( 'NONE', *, *, #228, .F. ) ;
#68 = DIRECTION ( 'NONE',  ( -0.000000000000000000, -0.000000000000000000, 1.000000000000000000 ) ) ;
#69 = ORIENTED_EDGE ( 'NONE', *, *, #179, .T. ) ;
#70 = FACE_OUTER_BOUND ( 'NONE', #7, .T. ) ;
#71 = FACE_OUTER_BOUND ( 'NONE', #107, .T. ) ;
#72 = LINE ( 'NONE', #246, #156 ) ;
#73 = CALENDAR_DATE ( 2022, 27, 4 ) ;
#74 = CARTESIAN_POINT ( 'NONE',  ( 0.000000000000000000, 0.000000000000000000, 0.000000000000000000 ) ) ;
#75 = CARTESIAN_POINT ( 'NONE',  ( 0.000000000000000000, 0.000000000000000000, -0.005999999999999881296 ) ) ;
#76 = PERSON_AND_ORGANIZATION_ROLE ( 'creator' ) ;
#77 = CARTESIAN_POINT ( 'NONE',  ( 0.000000000000000000, 0.000000000000000000, 0.000000000000000000 ) ) ;
#78 = CIRCLE ( 'NONE', #136, 0.09950000000000000511 ) ;
#79 = DATE_AND_TIME ( #51, #239 ) ;
#80 = UNCERTAINTY_MEASURE_WITH_UNIT (LENGTH_MEASURE( 1.000000000000000082E-05 ), #200, 'distance_accuracy_value', 'NONE');
#81 = ORIENTED_EDGE ( 'NONE', *, *, #53, .F. ) ;
#82 = DIRECTION ( 'NONE',  ( -1.000000000000000000, 0.000000000000000000, 0.000000000000000000 ) ) ;
#83 = ORIENTED_EDGE ( 'NONE', *, *, #87, .T. ) ;
#84 = VECTOR ( 'NONE', #66, 39.37007874015748854 ) ;
#85 = DESIGN_CONTEXT ( 'detailed design', #236, 'design' ) ;
#86 = CONICAL_SURFACE ( 'NONE', #42, 0.5507499999999999618, 1.378810109075524037 ) ;
#87 = EDGE_CURVE ( 'NONE', #181, #247, #114, .T. ) ;
#88 = EDGE_CURVE ( 'NONE', #196, #62, #22, .T. ) ;
#89 = CARTESIAN_POINT ( 'NONE',  ( 0.09950000000000000511, 0.000000000000000000, 0.7059800664451828522 ) ) ;
#90 = EDGE_LOOP ( 'NONE', ( #254, #99 ) ) ;
#91 = DIRECTION ( 'NONE',  ( 1.000000000000000000, 0.000000000000000000, 0.000000000000000000 ) ) ;
#92 = PRODUCT_DEFINITION_SHAPE ( 'NONE', 'NONE',  #95 ) ;
#93 = VERTEX_POINT ( 'NONE', #286 ) ;
#94 = DIRECTION ( 'NONE',  ( 0.000000000000000000, 0.000000000000000000, -1.000000000000000000 ) ) ;
#95 = PRODUCT_DEFINITION ( 'UNKNOWN', '', #235, #85 ) ;
#96 = FACE_OUTER_BOUND ( 'NONE', #49, .T. ) ;
#97 = CIRCLE ( 'NONE', #278, 0.09950000000000000511 ) ;
#98 = APPROVAL_ROLE ( '' ) ;
#99 = ORIENTED_EDGE ( 'NONE', *, *, #234, .T. ) ;
#100 = PLANE ( 'NONE',  #203 ) ;
#101 = DIRECTION ( 'NONE',  ( 1.000000000000000000, 0.000000000000000000, 0.000000000000000000 ) ) ;
#102 = DIRECTION ( 'NONE',  ( -1.000000000000000000, 0.000000000000000000, 0.000000000000000000 ) ) ;
#103 = DIRECTION ( 'NONE',  ( 1.000000000000000000, 0.000000000000000000, 0.000000000000000000 ) ) ;
#104 = APPROVAL_ROLE ( '' ) ;
#105 = CALENDAR_DATE ( 2022, 27, 4 ) ;
#106 = EDGE_CURVE ( 'NONE', #217, #247, #161, .T. ) ;
#107 = EDGE_LOOP ( 'NONE', ( #301, #188, #4, #2 ) ) ;
#108 = ORIENTED_EDGE ( 'NONE', *, *, #43, .T. ) ;
#109 = VECTOR ( 'NONE', #68, 39.37007874015748143 ) ;
#110 = CC_DESIGN_APPROVAL ( #160, ( #137 ) ) ;
#111 = ADVANCED_FACE ( 'NONE', ( #70 ), #230, .T. ) ;
#112 = VECTOR ( 'NONE', #220, 39.37007874015748854 ) ;
#113 = CC_DESIGN_PERSON_AND_ORGANIZATION_ASSIGNMENT ( #60, #251, ( #235 ) ) ;
#114 = LINE ( 'NONE', #214, #84 ) ;
#115 = AXIS2_PLACEMENT_3D ( 'NONE', #240, #122, #48 ) ;
#116 = APPROVAL_ROLE ( '' ) ;
#117 = ORIENTED_EDGE ( 'NONE', *, *, #244, .F. ) ;
#118 = LENGTH_MEASURE_WITH_UNIT ( LENGTH_MEASURE( 0.02539999999999999897 ), #226 );
#119 = EDGE_LOOP ( 'NONE', ( #269, #277 ) ) ;
#120 = DIRECTION ( 'NONE',  ( 1.000000000000000000, 0.000000000000000000, 0.000000000000000000 ) ) ;
#121 = ORIENTED_EDGE ( 'NONE', *, *, #39, .F. ) ;
#122 = DIRECTION ( 'NONE',  ( -0.000000000000000000, -0.000000000000000000, 1.000000000000000000 ) ) ;
#123 = ORIENTED_EDGE ( 'NONE', *, *, #259, .T. ) ;
#124 = CARTESIAN_POINT ( 'NONE',  ( -0.09950000000000000511, 1.218523565151616516E-17, -0.01200000000000003668 ) ) ;
#125 = PERSON_AND_ORGANIZATION_ROLE ( 'design_supplier' ) ;
#126 = DIRECTION ( 'NONE',  ( -1.000000000000000000, 0.000000000000000000, -0.000000000000000000 ) ) ;
#127 =( NAMED_UNIT ( * ) SI_UNIT ( $, .STERADIAN. ) SOLID_ANGLE_UNIT ( ) );
#128 = PRODUCT_RELATED_PRODUCT_CATEGORY ( 'detail', '', ( #140 ) ) ;
#129 = DATE_TIME_ROLE ( 'creation_date' ) ;
#130 = AXIS2_PLACEMENT_3D ( 'NONE', #224, #56, #297 ) ;
#131 = CC_DESIGN_APPROVAL ( #135, ( #95 ) ) ;
#132 = EDGE_LOOP ( 'NONE', ( #67, #183, #40, #290 ) ) ;
#133 = AXIS2_PLACEMENT_3D ( 'NONE', #293, #267, #32 ) ;
#134 = ORIENTED_EDGE ( 'NONE', *, *, #228, .T. ) ;
#135 = APPROVAL ( #178, 'UNSPECIFIED' ) ;
#136 = AXIS2_PLACEMENT_3D ( 'NONE', #13, #47, #285 ) ;
#137 = SECURITY_CLASSIFICATION ( '', '', #14 ) ;
#138 = APPROVAL_PERSON_ORGANIZATION ( #147, #275, #104 ) ;
#139 = CARTESIAN_POINT ( 'NONE',  ( 0.000000000000000000, 0.000000000000000000, -0.005999999999999881296 ) ) ;
#140 = PRODUCT ( 'V157', 'V157', '', ( #274 ) ) ;
#141 = COORDINATED_UNIVERSAL_TIME_OFFSET ( 6, 0, .BEHIND. ) ;
#142 = AXIS2_PLACEMENT_3D ( 'NONE', #143, #24, #175 ) ;
#143 = CARTESIAN_POINT ( 'NONE',  ( 0.000000000000000000, 0.000000000000000000, 0.000000000000000000 ) ) ;
#144 = FACE_OUTER_BOUND ( 'NONE', #255, .T. ) ;
#145 = CARTESIAN_POINT ( 'NONE',  ( -0.5507499999999999618, 0.000000000000000000, -0.005999999999999881296 ) ) ;
#146 = DIRECTION ( 'NONE',  ( -0.000000000000000000, -0.000000000000000000, 1.000000000000000000 ) ) ;
#147 = PERSON_AND_ORGANIZATION ( #270, #164 ) ;
#148 = ORIENTED_EDGE ( 'NONE', *, *, #259, .F. ) ;
#149 = LINE ( 'NONE', #249, #112 ) ;
#150 = CARTESIAN_POINT ( 'NONE',  ( -0.5198826759041781376, 6.555734398043086488E-17, -0.01199999999999989964 ) ) ;
#151 = APPLICATION_PROTOCOL_DEFINITION ( 'international standard', 'config_control_design', 1994, #300 ) ;
#152 = FACE_OUTER_BOUND ( 'NONE', #233, .T. ) ;
#153 = ADVANCED_FACE ( 'NONE', ( #144 ), #86, .T. ) ;
#154 = DATE_AND_TIME ( #231, #162 ) ;
#155 = COORDINATED_UNIVERSAL_TIME_OFFSET ( 6, 0, .BEHIND. ) ;
#156 = VECTOR ( 'NONE', #194, 39.37007874015748143 ) ;
#157 = CONICAL_SURFACE ( 'NONE', #261, 0.5507499999999999618, 1.378810109075524037 ) ;
#158 = EDGE_CURVE ( 'NONE', #247, #217, #176, .T. ) ;
#159 = ORIENTED_EDGE ( 'NONE', *, *, #299, .T. ) ;
#160 = APPROVAL ( #54, 'UNSPECIFIED' ) ;
#161 = CIRCLE ( 'NONE', #248, 0.5507499999999999618 ) ;
#162 = LOCAL_TIME ( 9, 4, 12.00000000000000000, #177 ) ;
#163 = ORIENTED_EDGE ( 'NONE', *, *, #106, .F. ) ;
#164 = ORGANIZATION ( 'UNSPECIFIED', 'UNSPECIFIED', '' ) ;
#165 = CARTESIAN_POINT ( 'NONE',  ( 0.5507499999999999618, 6.744742246304047337E-17, -0.005999999999999881296 ) ) ;
#166 = DIRECTION ( 'NONE',  ( -0.000000000000000000, -0.000000000000000000, 1.000000000000000000 ) ) ;
#167 = CARTESIAN_POINT ( 'NONE',  ( 0.000000000000000000, 0.000000000000000000, -0.01199999999999989964 ) ) ;
#168 = FACE_OUTER_BOUND ( 'NONE', #119, .T. ) ;
#169 = DIRECTION ( 'NONE',  ( 0.000000000000000000, 0.000000000000000000, 1.000000000000000000 ) ) ;
#170 = ORIENTED_EDGE ( 'NONE', *, *, #53, .T. ) ;
#171 = DIRECTION ( 'NONE',  ( -0.000000000000000000, -0.000000000000000000, 1.000000000000000000 ) ) ;
#172 = FACE_BOUND ( 'NONE', #279, .T. ) ;
#173 = APPROVAL_STATUS ( 'not_yet_approved' ) ;
#174 = EDGE_CURVE ( 'NONE', #242, #247, #180, .T. ) ;
#175 = DIRECTION ( 'NONE',  ( 1.000000000000000000, 0.000000000000000000, 0.000000000000000000 ) ) ;
#176 = CIRCLE ( 'NONE', #258, 0.5507499999999999618 ) ;
#177 = COORDINATED_UNIVERSAL_TIME_OFFSET ( 6, 0, .BEHIND. ) ;
#178 = APPROVAL_STATUS ( 'not_yet_approved' ) ;
#179 = EDGE_CURVE ( 'NONE', #52, #181, #20, .T. ) ;
#180 = LINE ( 'NONE', #276, #229 ) ;
#181 = VERTEX_POINT ( 'NONE', #222 ) ;
#182 = DIRECTION ( 'NONE',  ( -0.000000000000000000, -0.000000000000000000, 1.000000000000000000 ) ) ;
#183 = ORIENTED_EDGE ( 'NONE', *, *, #244, .T. ) ;
#184 = CC_DESIGN_SECURITY_CLASSIFICATION ( #137, ( #235 ) ) ;
#185 = DIMENSIONAL_EXPONENTS ( 1.000000000000000000, 0.000000000000000000, 0.000000000000000000, 0.000000000000000000, 0.000000000000000000, 0.000000000000000000, 0.000000000000000000 ) ;
#186 = ADVANCED_FACE ( 'NONE', ( #168, #172 ), #288, .F. ) ;
#187 = DIRECTION ( 'NONE',  ( -0.000000000000000000, -0.000000000000000000, 1.000000000000000000 ) ) ;
#188 = ORIENTED_EDGE ( 'NONE', *, *, #174, .T. ) ;
#189 = CARTESIAN_POINT ( 'NONE',  ( 0.000000000000000000, 0.5198826759041781376, -0.01200000000000000025 ) ) ;
#190 = CARTESIAN_POINT ( 'NONE',  ( 0.000000000000000000, 0.000000000000000000, -0.01199999999999989964 ) ) ;
#191 = AXIS2_PLACEMENT_3D ( 'NONE', #41, #210, #19 ) ;
#192 = CC_DESIGN_APPROVAL ( #275, ( #235 ) ) ;
#193 = DIRECTION ( 'NONE',  ( 1.000000000000000000, 0.000000000000000000, 0.000000000000000000 ) ) ;
#194 = DIRECTION ( 'NONE',  ( -0.9816271834476646418, 0.000000000000000000, -0.1908089953765411961 ) ) ;
#195 = PERSON_AND_ORGANIZATION_ROLE ( 'design_owner' ) ;
#196 = VERTEX_POINT ( 'NONE', #12 ) ;
#197 = DIRECTION ( 'NONE',  ( -0.000000000000000000, -0.000000000000000000, 1.000000000000000000 ) ) ;
#198 = CYLINDRICAL_SURFACE ( 'NONE', #130, 0.09950000000000000511 ) ;
#199 = SHAPE_DEFINITION_REPRESENTATION ( #92, #211 ) ;
#200 =( CONVERSION_BASED_UNIT ( 'INCH', #118 ) LENGTH_UNIT ( ) NAMED_UNIT ( #185 ) );
#201 = PERSON_AND_ORGANIZATION ( #270, #164 ) ;
#202 = CALENDAR_DATE ( 2022, 27, 4 ) ;
#203 = AXIS2_PLACEMENT_3D ( 'NONE', #3, #94, #126 ) ;
#204 = PERSON_AND_ORGANIZATION ( #270, #164 ) ;
#205 = ADVANCED_FACE ( 'NONE', ( #152 ), #263, .T. ) ;
#206 = ORIENTED_EDGE ( 'NONE', *, *, #174, .F. ) ;
#207 = ORIENTED_EDGE ( 'NONE', *, *, #158, .F. ) ;
#208 = LOCAL_TIME ( 9, 4, 12.00000000000000000, #294 ) ;
#209 = CC_DESIGN_PERSON_AND_ORGANIZATION_ASSIGNMENT ( #201, #37, ( #137 ) ) ;
#210 = DIRECTION ( 'NONE',  ( -0.000000000000000000, -0.000000000000000000, 1.000000000000000000 ) ) ;
#211 = ADVANCED_BREP_SHAPE_REPRESENTATION ( 'V157', ( #44, #21 ), #291 ) ;
#212 = CIRCLE ( 'NONE', #253, 0.5198826759041781376 ) ;
#213 = AXIS2_PLACEMENT_3D ( 'NONE', #167, #171, #266 ) ;
#214 = CARTESIAN_POINT ( 'NONE',  ( 0.5198826759041781376, 0.000000000000000000, -0.01199999999999989964 ) ) ;
#215 = AXIS2_PLACEMENT_3D ( 'NONE', #190, #166, #295 ) ;
#216 = CARTESIAN_POINT ( 'NONE',  ( 0.000000000000000000, 0.000000000000000000, -0.01200000000000003668 ) ) ;
#217 = VERTEX_POINT ( 'NONE', #145 ) ;
#218 = FACE_BOUND ( 'NONE', #23, .T. ) ;
#219 = CIRCLE ( 'NONE', #283, 0.09950000000000000511 ) ;
#220 = DIRECTION ( 'NONE',  ( -0.9816271834476637537, 1.202146588165212967E-16, 0.1908089953765453040 ) ) ;
#221 = ADVANCED_FACE ( 'NONE', ( #218, #5 ), #100, .F. ) ;
#222 = CARTESIAN_POINT ( 'NONE',  ( 0.5198826759041781376, 0.000000000000000000, -0.01199999999999989964 ) ) ;
#223 = DIRECTION ( 'NONE',  ( 0.000000000000000000, -0.000000000000000000, 1.000000000000000000 ) ) ;
#224 = CARTESIAN_POINT ( 'NONE',  ( 0.000000000000000000, 0.000000000000000000, 0.7059800664451828522 ) ) ;
#225 = DATE_AND_TIME ( #105, #208 ) ;
#226 =( LENGTH_UNIT ( ) NAMED_UNIT ( * ) SI_UNIT ( $, .METRE. ) );
#227 = PERSON_AND_ORGANIZATION ( #270, #164 ) ;
#228 = EDGE_CURVE ( 'NONE', #287, #196, #97, .T. ) ;
#229 = VECTOR ( 'NONE', #257, 39.37007874015748143 ) ;
#230 = CONICAL_SURFACE ( 'NONE', #213, 0.5198826759041781376, 1.378810109075519819 ) ;
#231 = CALENDAR_DATE ( 2022, 27, 4 ) ;
#232 = LOCAL_TIME ( 9, 4, 12.00000000000000000, #141 ) ;
#233 = EDGE_LOOP ( 'NONE', ( #26, #69, #83, #163 ) ) ;
#234 = EDGE_CURVE ( 'NONE', #242, #93, #8, .T. ) ;
#235 = PRODUCT_DEFINITION_FORMATION_WITH_SPECIFIED_SOURCE ( 'ANY', '', #140, .NOT_KNOWN. ) ;
#236 = APPLICATION_CONTEXT ( 'configuration controlled 3d designs of mechanical parts and assemblies' ) ;
#237 = CC_DESIGN_DATE_AND_TIME_ASSIGNMENT ( #272, #129, ( #95 ) ) ;
#238 = CARTESIAN_POINT ( 'NONE',  ( 0.09950000000000000511, 0.000000000000000000, 0.000000000000000000 ) ) ;
#239 = LOCAL_TIME ( 9, 4, 12.00000000000000000, #268 ) ;
#240 = CARTESIAN_POINT ( 'NONE',  ( 0.000000000000000000, 0.000000000000000000, -0.01199999999999989964 ) ) ;
#241 = DIRECTION ( 'NONE',  ( -0.000000000000000000, -0.000000000000000000, 1.000000000000000000 ) ) ;
#242 = VERTEX_POINT ( 'NONE', #296 ) ;
#243 = CARTESIAN_POINT ( 'NONE',  ( 0.000000000000000000, 0.000000000000000000, -0.005999999999999881296 ) ) ;
#244 = EDGE_CURVE ( 'NONE', #287, #292, #265, .T. ) ;
#245 = CARTESIAN_POINT ( 'NONE',  ( -0.09950000000000000511, 1.218523565151616516E-17, 0.7059800664451828522 ) ) ;
#246 = CARTESIAN_POINT ( 'NONE',  ( -0.5507499999999999618, 0.000000000000000000, -0.005999999999999881296 ) ) ;
#247 = VERTEX_POINT ( 'NONE', #165 ) ;
#248 = AXIS2_PLACEMENT_3D ( 'NONE', #139, #29, #120 ) ;
#249 = CARTESIAN_POINT ( 'NONE',  ( -0.5198826759041781376, 6.366726549782125639E-17, -0.01199999999999989964 ) ) ;
#250 = DATE_TIME_ROLE ( 'classification_date' ) ;
#251 = PERSON_AND_ORGANIZATION_ROLE ( 'creator' ) ;
#252 = ORIENTED_EDGE ( 'NONE', *, *, #256, .F. ) ;
#253 = AXIS2_PLACEMENT_3D ( 'NONE', #74, #146, #103 ) ;
#254 = ORIENTED_EDGE ( 'NONE', *, *, #39, .T. ) ;
#255 = EDGE_LOOP ( 'NONE', ( #206, #121, #108, #18 ) ) ;
#256 = EDGE_CURVE ( 'NONE', #292, #62, #46, .T. ) ;
#257 = DIRECTION ( 'NONE',  ( 0.9816271834476646418, 1.202146588165214199E-16, -0.1908089953765411961 ) ) ;
#258 = AXIS2_PLACEMENT_3D ( 'NONE', #64, #182, #61 ) ;
#259 = EDGE_CURVE ( 'NONE', #62, #292, #219, .T. ) ;
#260 = VECTOR ( 'NONE', #187, 39.37007874015748143 ) ;
#261 = AXIS2_PLACEMENT_3D ( 'NONE', #75, #28, #102 ) ;
#262 = CC_DESIGN_DATE_AND_TIME_ASSIGNMENT ( #154, #250, ( #137 ) ) ;
#263 = CONICAL_SURFACE ( 'NONE', #115, 0.5198826759041781376, 1.378810109075519819 ) ;
#264 = ORIENTED_EDGE ( 'NONE', *, *, #88, .T. ) ;
#265 = LINE ( 'NONE', #245, #109 ) ;
#266 = DIRECTION ( 'NONE',  ( 1.000000000000000000, 0.000000000000000000, 0.000000000000000000 ) ) ;
#267 = DIRECTION ( 'NONE',  ( -0.000000000000000000, -0.000000000000000000, 1.000000000000000000 ) ) ;
#268 = COORDINATED_UNIVERSAL_TIME_OFFSET ( 6, 0, .BEHIND. ) ;
#269 = ORIENTED_EDGE ( 'NONE', *, *, #33, .F. ) ;
#270 = PERSON ( 'UNSPECIFIED', 'UNSPECIFIED', 'UNSPECIFIED', ('UNSPECIFIED'), ('UNSPECIFIED'), ('UNSPECIFIED') ) ;
#271 = CARTESIAN_POINT ( 'NONE',  ( -0.09950000000000000511, 1.218523565151616516E-17, 0.000000000000000000 ) ) ;
#272 = DATE_AND_TIME ( #73, #9 ) ;
#273 = CARTESIAN_POINT ( 'NONE',  ( 0.000000000000000000, 0.000000000000000000, 0.000000000000000000 ) ) ;
#274 = MECHANICAL_CONTEXT ( 'NONE', #300, 'mechanical' ) ;
#275 = APPROVAL ( #173, 'UNSPECIFIED' ) ;
#276 = CARTESIAN_POINT ( 'NONE',  ( 0.5507499999999999618, 6.744742246304047337E-17, -0.005999999999999881296 ) ) ;
#277 = ORIENTED_EDGE ( 'NONE', *, *, #179, .F. ) ;
#278 = AXIS2_PLACEMENT_3D ( 'NONE', #216, #35, #91 ) ;
#279 = EDGE_LOOP ( 'NONE', ( #170, #134 ) ) ;
#280 = ADVANCED_FACE ( 'NONE', ( #27 ), #10, .F. ) ;
#281 = AXIS2_PLACEMENT_3D ( 'NONE', #77, #197, #193 ) ;
#282 = APPROVAL_DATE_TIME ( #31, #160 ) ;
#283 = AXIS2_PLACEMENT_3D ( 'NONE', #273, #241, #55 ) ;
#284 = ADVANCED_FACE ( 'NONE', ( #71 ), #157, .T. ) ;
#285 = DIRECTION ( 'NONE',  ( 1.000000000000000000, 0.000000000000000000, 0.000000000000000000 ) ) ;
#286 = CARTESIAN_POINT ( 'NONE',  ( -0.5198826759041781376, 0.000000000000000000, 0.000000000000000000 ) ) ;
#287 = VERTEX_POINT ( 'NONE', #124 ) ;
#288 = PLANE ( 'NONE',  #63 ) ;
#289 = CC_DESIGN_PERSON_AND_ORGANIZATION_ASSIGNMENT ( #227, #195, ( #140 ) ) ;
#290 = ORIENTED_EDGE ( 'NONE', *, *, #88, .F. ) ;
#291 =( GEOMETRIC_REPRESENTATION_CONTEXT ( 3 ) GLOBAL_UNCERTAINTY_ASSIGNED_CONTEXT ( ( #80 ) ) GLOBAL_UNIT_ASSIGNED_CONTEXT ( ( #200, #34, #127 ) ) REPRESENTATION_CONTEXT ( 'NONE', 'WORKASPACE' ) );
#292 = VERTEX_POINT ( 'NONE', #271 ) ;
#293 = CARTESIAN_POINT ( 'NONE',  ( 0.000000000000000000, 0.000000000000000000, 0.7059800664451828522 ) ) ;
#294 = COORDINATED_UNIVERSAL_TIME_OFFSET ( 6, 0, .BEHIND. ) ;
#295 = DIRECTION ( 'NONE',  ( 1.000000000000000000, 0.000000000000000000, 0.000000000000000000 ) ) ;
#296 = CARTESIAN_POINT ( 'NONE',  ( 0.5198826759041781376, 6.555734398043086488E-17, 0.000000000000000000 ) ) ;
#297 = DIRECTION ( 'NONE',  ( 1.000000000000000000, 0.000000000000000000, 0.000000000000000000 ) ) ;
#298 = APPLICATION_PROTOCOL_DEFINITION ( 'international standard', 'config_control_design', 1994, #236 ) ;
#299 = EDGE_CURVE ( 'NONE', #52, #217, #149, .T. ) ;
#300 = APPLICATION_CONTEXT ( 'configuration controlled 3d designs of mechanical parts and assemblies' ) ;
#301 = ORIENTED_EDGE ( 'NONE', *, *, #234, .F. ) ;
#302 = APPROVAL_PERSON_ORGANIZATION ( #6, #135, #98 ) ;
ENDSEC;
END-ISO-10303-21;
