ISO-10303-21;
HEADER;
FILE_DESCRIPTION (( 'STEP AP203' ),
    '1' );
FILE_NAME ('KP82976.STEP',
    '2022-04-27T15:32:23',
    ( '' ),
    ( '' ),
    'SwSTEP 2.0',
    'SolidWorks 2020',
    '' );
FILE_SCHEMA (( 'CONFIG_CONTROL_DESIGN' ));
ENDSEC;

DATA;
#1 = CARTESIAN_POINT ( 'NONE',  ( 0.2362204724409446288, 0.9055118110236218820, -2.449212707644754886E-19 ) ) ;
#2 = AXIS2_PLACEMENT_3D ( 'NONE', #304, #180, #210 ) ;
#3 = LOCAL_TIME ( 10, 32, 23.00000000000000000, #174 ) ;
#4 = APPROVAL_DATE_TIME ( #285, #15 ) ;
#5 = DIRECTION ( 'NONE',  ( -0.000000000000000000, -0.000000000000000000, 1.000000000000000000 ) ) ;
#6 = EDGE_CURVE ( 'NONE', #26, #45, #168, .T. ) ;
#7 = PERSON_AND_ORGANIZATION ( #105, #277 ) ;
#8 = DIRECTION ( 'NONE',  ( -1.000000000000000000, 1.508455196501571429E-16, 0.000000000000000000 ) ) ;
#9 = FACE_BOUND ( 'NONE', #90, .T. ) ;
#10 = AXIS2_PLACEMENT_3D ( 'NONE', #62, #329, #144 ) ;
#11 = ADVANCED_FACE ( 'NONE', ( #234 ), #388, .F. ) ;
#12 = CIRCLE ( 'NONE', #221, 0.08500000000000058897 ) ;
#13 = AXIS2_PLACEMENT_3D ( 'NONE', #75, #311, #81 ) ;
#14 = DIRECTION ( 'NONE',  ( 0.000000000000000000, 0.7071067811865489050, -0.7071067811865460184 ) ) ;
#15 = APPROVAL ( #328, 'UNSPECIFIED' ) ;
#16 = DIRECTION ( 'NONE',  ( -0.000000000000000000, -0.000000000000000000, 1.000000000000000000 ) ) ;
#17 = EDGE_LOOP ( 'NONE', ( #278, #348, #43, #18 ) ) ;
#18 = ORIENTED_EDGE ( 'NONE', *, *, #100, .F. ) ;
#19 = EDGE_CURVE ( 'NONE', #109, #186, #208, .T. ) ;
#20 = CARTESIAN_POINT ( 'NONE',  ( 0.8661417322834642496, 1.811023622047244208, 0.000000000000000000 ) ) ;
#21 = AXIS2_PLACEMENT_3D ( 'NONE', #128, #217, #84 ) ;
#22 = EDGE_LOOP ( 'NONE', ( #297, #292 ) ) ;
#23 = FACE_OUTER_BOUND ( 'NONE', #48, .T. ) ;
#24 = ORIENTED_EDGE ( 'NONE', *, *, #192, .T. ) ;
#25 = PERSON_AND_ORGANIZATION_ROLE ( 'creator' ) ;
#26 = VERTEX_POINT ( 'NONE', #295 ) ;
#27 = APPROVAL_ROLE ( '' ) ;
#28 = DIRECTION ( 'NONE',  ( 1.000000000000000000, 0.000000000000000000, 0.000000000000000000 ) ) ;
#29 = MECHANICAL_CONTEXT ( 'NONE', #64, 'mechanical' ) ;
#30 = DIRECTION ( 'NONE',  ( -0.000000000000000000, -0.000000000000000000, 1.000000000000000000 ) ) ;
#31 = DIRECTION ( 'NONE',  ( 1.000000000000000000, 0.000000000000000000, 0.000000000000000000 ) ) ;
#32 = CARTESIAN_POINT ( 'NONE',  ( 0.8661417322834638055, 1.653543307086613456, -8.400432580417961426E-21 ) ) ;
#33 = CC_DESIGN_PERSON_AND_ORGANIZATION_ASSIGNMENT ( #288, #25, ( #104 ) ) ;
#34 = APPROVAL_ROLE ( '' ) ;
#35 = ORIENTED_EDGE ( 'NONE', *, *, #379, .T. ) ;
#36 = AXIS2_PLACEMENT_3D ( 'NONE', #1, #232, #320 ) ;
#37 = CALENDAR_DATE ( 2022, 27, 4 ) ;
#38 = ORIENTED_EDGE ( 'NONE', *, *, #19, .T. ) ;
#39 = DIRECTION ( 'NONE',  ( 1.000000000000000000, 0.000000000000000000, 0.000000000000000000 ) ) ;
#40 = VECTOR ( 'NONE', #207, 39.37007874015748143 ) ;
#41 = CC_DESIGN_DATE_AND_TIME_ASSIGNMENT ( #233, #91, ( #133 ) ) ;
#42 = FACE_OUTER_BOUND ( 'NONE', #377, .T. ) ;
#43 = ORIENTED_EDGE ( 'NONE', *, *, #67, .T. ) ;
#44 = PLANE ( 'NONE',  #367 ) ;
#45 = VERTEX_POINT ( 'NONE', #201 ) ;
#46 = EDGE_CURVE ( 'NONE', #186, #109, #213, .T. ) ;
#47 = FACE_BOUND ( 'NONE', #22, .T. ) ;
#48 = EDGE_LOOP ( 'NONE', ( #346, #160, #38, #61 ) ) ;
#49 = CARTESIAN_POINT ( 'NONE',  ( -2.731847993664263218E-16, 1.811023622047244208, 0.000000000000000000 ) ) ;
#50 = CC_DESIGN_APPROVAL ( #216, ( #133 ) ) ;
#51 = ORIENTED_EDGE ( 'NONE', *, *, #303, .F. ) ;
#52 = FACE_OUTER_BOUND ( 'NONE', #310, .T. ) ;
#53 = ORIENTED_EDGE ( 'NONE', *, *, #279, .T. ) ;
#54 = DIRECTION ( 'NONE',  ( -1.066638898562349381E-16, 0.7071067811865489050, -0.7071067811865460184 ) ) ;
#55 = LINE ( 'NONE', #32, #94 ) ;
#56 = CARTESIAN_POINT ( 'NONE',  ( 0.8661417322834640276, 0.1574803149606282815, -0.1574803149606299191 ) ) ;
#57 = DIRECTION ( 'NONE',  ( -1.508455196501571429E-16, 1.000000000000000000, 0.000000000000000000 ) ) ;
#58 = CIRCLE ( 'NONE', #74, 0.08500000000000046407 ) ;
#59 = APPLICATION_PROTOCOL_DEFINITION ( 'international standard', 'config_control_design', 1994, #64 ) ;
#60 = LINE ( 'NONE', #148, #298 ) ;
#61 = ORIENTED_EDGE ( 'NONE', *, *, #239, .F. ) ;
#62 = CARTESIAN_POINT ( 'NONE',  ( 0.2362204724409446288, 0.9055118110236218820, -0.1574803149606299191 ) ) ;
#63 = PRODUCT_DEFINITION_FORMATION_WITH_SPECIFIED_SOURCE ( 'ANY', '', #360, .NOT_KNOWN. ) ;
#64 = APPLICATION_CONTEXT ( 'configuration controlled 3d designs of mechanical parts and assemblies' ) ;
#65 = FACE_OUTER_BOUND ( 'NONE', #17, .T. ) ;
#66 = DIRECTION ( 'NONE',  ( 1.000000000000000000, 0.000000000000000000, -0.000000000000000000 ) ) ;
#67 = EDGE_CURVE ( 'NONE', #113, #280, #263, .T. ) ;
#68 = FACE_OUTER_BOUND ( 'NONE', #260, .T. ) ;
#69 = APPROVAL_PERSON_ORGANIZATION ( #169, #15, #34 ) ;
#70 = LINE ( 'NONE', #215, #40 ) ;
#71 = CC_DESIGN_PERSON_AND_ORGANIZATION_ASSIGNMENT ( #89, #143, ( #63 ) ) ;
#72 = DIRECTION ( 'NONE',  ( -1.508455196501571429E-16, -1.000000000000000000, 0.000000000000000000 ) ) ;
#73 = VERTEX_POINT ( 'NONE', #141 ) ;
#74 = AXIS2_PLACEMENT_3D ( 'NONE', #274, #302, #306 ) ;
#75 = CARTESIAN_POINT ( 'NONE',  ( 0.2362204724409446288, 0.9055118110236218820, 0.000000000000000000 ) ) ;
#76 = ADVANCED_FACE ( 'NONE', ( #355 ), #92, .F. ) ;
#77 = VERTEX_POINT ( 'NONE', #358 ) ;
#78 = CARTESIAN_POINT ( 'NONE',  ( 0.8661417322834638055, 1.811023622047244208, -0.1574803149606299191 ) ) ;
#79 = MANIFOLD_SOLID_BREP ( 'Hole2', #339 ) ;
#80 = ORIENTED_EDGE ( 'NONE', *, *, #323, .T. ) ;
#81 = DIRECTION ( 'NONE',  ( 1.000000000000000000, 0.000000000000000000, 0.000000000000000000 ) ) ;
#82 = EDGE_LOOP ( 'NONE', ( #255, #287, #258, #251 ) ) ;
#83 = DIMENSIONAL_EXPONENTS ( 1.000000000000000000, 0.000000000000000000, 0.000000000000000000, 0.000000000000000000, 0.000000000000000000, 0.000000000000000000, 0.000000000000000000 ) ;
#84 = DIRECTION ( 'NONE',  ( 1.000000000000000000, 0.000000000000000000, 0.000000000000000000 ) ) ;
#85 = LOCAL_TIME ( 10, 32, 23.00000000000000000, #385 ) ;
#86 = ORIENTED_EDGE ( 'NONE', *, *, #205, .T. ) ;
#87 = EDGE_CURVE ( 'NONE', #336, #73, #55, .T. ) ;
#88 = DIRECTION ( 'NONE',  ( -1.000000000000000000, 0.000000000000000000, 0.000000000000000000 ) ) ;
#89 = PERSON_AND_ORGANIZATION ( #105, #277 ) ;
#90 = EDGE_LOOP ( 'NONE', ( #86, #24 ) ) ;
#91 = DATE_TIME_ROLE ( 'classification_date' ) ;
#92 = CYLINDRICAL_SURFACE ( 'NONE', #245, 0.08500000000000053346 ) ;
#93 = EDGE_CURVE ( 'NONE', #386, #113, #152, .T. ) ;
#94 = VECTOR ( 'NONE', #325, 39.37007874015748143 ) ;
#95 = CALENDAR_DATE ( 2022, 27, 4 ) ;
#96 = LINE ( 'NONE', #204, #110 ) ;
#97 = DIRECTION ( 'NONE',  ( -0.000000000000000000, -0.000000000000000000, 1.000000000000000000 ) ) ;
#98 = DATE_AND_TIME ( #37, #342 ) ;
#99 = AXIS2_PLACEMENT_3D ( 'NONE', #125, #102, #247 ) ;
#100 = EDGE_CURVE ( 'NONE', #171, #280, #60, .T. ) ;
#101 = DIRECTION ( 'NONE',  ( 0.000000000000000000, 0.000000000000000000, 1.000000000000000000 ) ) ;
#102 = DIRECTION ( 'NONE',  ( -0.000000000000000000, -0.000000000000000000, 1.000000000000000000 ) ) ;
#103 = CARTESIAN_POINT ( 'NONE',  ( 0.3212204724409451484, 0.9055118110236218820, 0.000000000000000000 ) ) ;
#104 = PRODUCT_DEFINITION ( 'UNKNOWN', '', #63, #134 ) ;
#105 = PERSON ( 'UNSPECIFIED', 'UNSPECIFIED', 'UNSPECIFIED', ('UNSPECIFIED'), ('UNSPECIFIED'), ('UNSPECIFIED') ) ;
#106 = CARTESIAN_POINT ( 'NONE',  ( 0.6299212598425188991, 0.9055118110236217710, -0.1574803149606299191 ) ) ;
#107 = CARTESIAN_POINT ( 'NONE',  ( 0.8661417322834640276, -1.306535996969864031E-16, 0.000000000000000000 ) ) ;
#108 = LINE ( 'NONE', #107, #184 ) ;
#109 = VERTEX_POINT ( 'NONE', #173 ) ;
#110 = VECTOR ( 'NONE', #272, 39.37007874015748143 ) ;
#111 = VERTEX_POINT ( 'NONE', #268 ) ;
#112 = EDGE_LOOP ( 'NONE', ( #227, #382, #166, #314 ) ) ;
#113 = VERTEX_POINT ( 'NONE', #119 ) ;
#114 = ORIENTED_EDGE ( 'NONE', *, *, #276, .T. ) ;
#115 = CARTESIAN_POINT ( 'NONE',  ( 0.1512204724409440815, 0.9055118110236218820, 0.000000000000000000 ) ) ;
#116 = EDGE_CURVE ( 'NONE', #165, #111, #12, .T. ) ;
#117 =( NAMED_UNIT ( * ) SI_UNIT ( $, .STERADIAN. ) SOLID_ANGLE_UNIT ( ) );
#118 = EDGE_LOOP ( 'NONE', ( #191, #308 ) ) ;
#119 = CARTESIAN_POINT ( 'NONE',  ( -2.731847993664263218E-16, 0.1574803149606282260, -0.1574803149606299191 ) ) ;
#120 =( LENGTH_UNIT ( ) NAMED_UNIT ( * ) SI_UNIT ( $, .METRE. ) );
#121 = FACE_OUTER_BOUND ( 'NONE', #82, .T. ) ;
#122 = APPROVAL_STATUS ( 'not_yet_approved' ) ;
#123 = CARTESIAN_POINT ( 'NONE',  ( 0.7149212598425193077, 0.9055118110236217710, -0.1574803149606299191 ) ) ;
#124 = EDGE_CURVE ( 'NONE', #77, #341, #96, .T. ) ;
#125 = CARTESIAN_POINT ( 'NONE',  ( 0.6299212598425188991, 0.9055118110236217710, -2.449212707644754886E-19 ) ) ;
#126 = DIRECTION ( 'NONE',  ( -1.508455196501571429E-16, 1.000000000000000000, 0.000000000000000000 ) ) ;
#127 = AXIS2_PLACEMENT_3D ( 'NONE', #106, #307, #39 ) ;
#128 = CARTESIAN_POINT ( 'NONE',  ( 0.2362204724409446288, 0.9055118110236218820, -0.1574803149606299191 ) ) ;
#129 = ORIENTED_EDGE ( 'NONE', *, *, #230, .F. ) ;
#130 = ORIENTED_EDGE ( 'NONE', *, *, #93, .F. ) ;
#131 = VECTOR ( 'NONE', #368, 39.37007874015748143 ) ;
#132 = DIRECTION ( 'NONE',  ( 0.000000000000000000, -0.7071067811865441310, 0.7071067811865507924 ) ) ;
#133 = SECURITY_CLASSIFICATION ( '', '', #172 ) ;
#134 = DESIGN_CONTEXT ( 'detailed design', #264, 'design' ) ;
#135 = CARTESIAN_POINT ( 'NONE',  ( -1.365923996832126186E-16, 0.9055118110236183293, 0.7480314960629922405 ) ) ;
#136 = CC_DESIGN_PERSON_AND_ORGANIZATION_ASSIGNMENT ( #228, #231, ( #63 ) ) ;
#137 = EDGE_LOOP ( 'NONE', ( #282, #51, #158, #318 ) ) ;
#138 = PERSON_AND_ORGANIZATION_ROLE ( 'design_owner' ) ;
#139 = ORIENTED_EDGE ( 'NONE', *, *, #182, .F. ) ;
#140 = LENGTH_MEASURE_WITH_UNIT ( LENGTH_MEASURE( 0.02539999999999999897 ), #120 );
#141 = CARTESIAN_POINT ( 'NONE',  ( -2.494295994215195866E-16, 1.653543307086613456, 0.000000000000000000 ) ) ;
#142 = EDGE_CURVE ( 'NONE', #26, #109, #289, .T. ) ;
#143 = PERSON_AND_ORGANIZATION_ROLE ( 'design_supplier' ) ;
#144 = DIRECTION ( 'NONE',  ( 1.000000000000000000, 0.000000000000000000, 0.000000000000000000 ) ) ;
#145 = APPROVAL_STATUS ( 'not_yet_approved' ) ;
#146 = DIRECTION ( 'NONE',  ( 1.000000000000000000, 0.000000000000000000, 0.000000000000000000 ) ) ;
#147 = CALENDAR_DATE ( 2022, 27, 4 ) ;
#148 = CARTESIAN_POINT ( 'NONE',  ( 0.8661417322834642496, 1.811023622047244208, -0.1574803149606299191 ) ) ;
#149 = VECTOR ( 'NONE', #16, 39.37007874015748143 ) ;
#150 = LOCAL_TIME ( 10, 32, 23.00000000000000000, #236 ) ;
#151 = APPROVAL_DATE_TIME ( #98, #216 ) ;
#152 = LINE ( 'NONE', #167, #270 ) ;
#153 = CARTESIAN_POINT ( 'NONE',  ( 0.3212204724409451484, 0.9055118110236218820, -2.449212707644754886E-19 ) ) ;
#154 = AXIS2_PLACEMENT_3D ( 'NONE', #183, #8, #72 ) ;
#155 = ADVANCED_FACE ( 'NONE', ( #121 ), #241, .F. ) ;
#156 = CARTESIAN_POINT ( 'NONE',  ( 0.8661417322834642496, 1.811023622047244208, -0.1574803149606299191 ) ) ;
#157 = DIRECTION ( 'NONE',  ( 0.000000000000000000, 0.7071067811865441310, -0.7071067811865509034 ) ) ;
#158 = ORIENTED_EDGE ( 'NONE', *, *, #239, .T. ) ;
#159 = CC_DESIGN_PERSON_AND_ORGANIZATION_ASSIGNMENT ( #387, #138, ( #360 ) ) ;
#160 = ORIENTED_EDGE ( 'NONE', *, *, #142, .T. ) ;
#161 = LINE ( 'NONE', #281, #349 ) ;
#162 = ORIENTED_EDGE ( 'NONE', *, *, #223, .T. ) ;
#163 = VECTOR ( 'NONE', #126, 39.37007874015748143 ) ;
#164 = PLANE ( 'NONE',  #362 ) ;
#165 = VERTEX_POINT ( 'NONE', #212 ) ;
#166 = ORIENTED_EDGE ( 'NONE', *, *, #124, .T. ) ;
#167 = CARTESIAN_POINT ( 'NONE',  ( 0.8661417322834640276, 0.1574803149606282815, -0.1574803149606299191 ) ) ;
#168 = CIRCLE ( 'NONE', #10, 0.08500000000000053346 ) ;
#169 = PERSON_AND_ORGANIZATION ( #105, #277 ) ;
#170 = AXIS2_PLACEMENT_3D ( 'NONE', #273, #177, #266 ) ;
#171 = VERTEX_POINT ( 'NONE', #156 ) ;
#172 = SECURITY_CLASSIFICATION_LEVEL ( 'unclassified' ) ;
#173 = CARTESIAN_POINT ( 'NONE',  ( 0.1512204724409440815, 0.9055118110236218820, -2.449212707644754886E-19 ) ) ;
#174 = COORDINATED_UNIVERSAL_TIME_OFFSET ( 6, 0, .BEHIND. ) ;
#175 = DIRECTION ( 'NONE',  ( 1.000000000000000000, 0.000000000000000000, 0.000000000000000000 ) ) ;
#176 = CC_DESIGN_PERSON_AND_ORGANIZATION_ASSIGNMENT ( #199, #271, ( #133 ) ) ;
#177 = DIRECTION ( 'NONE',  ( -0.000000000000000000, -0.000000000000000000, 1.000000000000000000 ) ) ;
#178 = VECTOR ( 'NONE', #54, 39.37007874015748854 ) ;
#179 = CC_DESIGN_APPROVAL ( #15, ( #104 ) ) ;
#180 = DIRECTION ( 'NONE',  ( 1.000000000000000000, 1.508455196501571429E-16, -0.000000000000000000 ) ) ;
#181 = LINE ( 'NONE', #378, #237 ) ;
#182 = EDGE_CURVE ( 'NONE', #252, #165, #70, .T. ) ;
#183 = CARTESIAN_POINT ( 'NONE',  ( 0.8661417322834642496, 1.811023622047244208, -0.1574803149606299191 ) ) ;
#184 = VECTOR ( 'NONE', #157, 39.37007874015748143 ) ;
#185 = CARTESIAN_POINT ( 'NONE',  ( -2.731847993664263218E-16, 1.811023622047244208, -0.1574803149606299191 ) ) ;
#186 = VERTEX_POINT ( 'NONE', #153 ) ;
#187 = VECTOR ( 'NONE', #226, 39.37007874015748143 ) ;
#188 = CARTESIAN_POINT ( 'NONE',  ( 0.5449212598425183796, 0.9055118110236217710, 0.000000000000000000 ) ) ;
#189 = EDGE_LOOP ( 'NONE', ( #344, #284 ) ) ;
#190 = CYLINDRICAL_SURFACE ( 'NONE', #13, 0.08500000000000053346 ) ;
#191 = ORIENTED_EDGE ( 'NONE', *, *, #46, .F. ) ;
#192 = EDGE_CURVE ( 'NONE', #194, #252, #324, .T. ) ;
#193 = LINE ( 'NONE', #135, #178 ) ;
#194 = VERTEX_POINT ( 'NONE', #332 ) ;
#195 = CC_DESIGN_APPROVAL ( #317, ( #63 ) ) ;
#196 = DIRECTION ( 'NONE',  ( 1.000000000000000000, 0.000000000000000000, -0.000000000000000000 ) ) ;
#197 = ORIENTED_EDGE ( 'NONE', *, *, #267, .T. ) ;
#198 = CARTESIAN_POINT ( 'NONE',  ( 0.6299212598425188991, 0.9055118110236217710, -2.449212707644754886E-19 ) ) ;
#199 = PERSON_AND_ORGANIZATION ( #105, #277 ) ;
#200 = EDGE_CURVE ( 'NONE', #77, #73, #246, .T. ) ;
#201 = CARTESIAN_POINT ( 'NONE',  ( 0.3212204724409451484, 0.9055118110236218820, -0.1574803149606299191 ) ) ;
#202 = DIRECTION ( 'NONE',  ( -0.000000000000000000, -0.000000000000000000, 1.000000000000000000 ) ) ;
#203 = APPROVAL_DATE_TIME ( #259, #317 ) ;
#204 = CARTESIAN_POINT ( 'NONE',  ( 0.000000000000000000, 0.000000000000000000, 0.000000000000000000 ) ) ;
#205 = EDGE_CURVE ( 'NONE', #252, #194, #58, .T. ) ;
#206 = DIRECTION ( 'NONE',  ( -0.000000000000000000, -0.000000000000000000, 1.000000000000000000 ) ) ;
#207 = DIRECTION ( 'NONE',  ( -0.000000000000000000, -0.000000000000000000, 1.000000000000000000 ) ) ;
#208 = CIRCLE ( 'NONE', #36, 0.08500000000000053346 ) ;
#209 = ADVANCED_FACE ( 'NONE', ( #68 ), #275, .F. ) ;
#210 = DIRECTION ( 'NONE',  ( -1.508455196501571429E-16, 1.000000000000000000, 0.000000000000000000 ) ) ;
#211 = CARTESIAN_POINT ( 'NONE',  ( 0.8661417322834638055, 1.811023622047244208, -0.1574803149606299191 ) ) ;
#212 = CARTESIAN_POINT ( 'NONE',  ( 0.7149212598425195297, 0.9055118110236217710, -2.449212707644754886E-19 ) ) ;
#213 = CIRCLE ( 'NONE', #340, 0.08500000000000053346 ) ;
#214 = APPROVAL_PERSON_ORGANIZATION ( #319, #317, #27 ) ;
#215 = CARTESIAN_POINT ( 'NONE',  ( 0.7149212598425195297, 0.9055118110236217710, 0.000000000000000000 ) ) ;
#216 = APPROVAL ( #122, 'UNSPECIFIED' ) ;
#217 = DIRECTION ( 'NONE',  ( -0.000000000000000000, -0.000000000000000000, 1.000000000000000000 ) ) ;
#218 = ORIENTED_EDGE ( 'NONE', *, *, #276, .F. ) ;
#219 = CARTESIAN_POINT ( 'NONE',  ( 0.8661417322834638055, 1.653543307086613456, -8.400432580417961426E-21 ) ) ;
#220 = ORIENTED_EDGE ( 'NONE', *, *, #87, .F. ) ;
#221 = AXIS2_PLACEMENT_3D ( 'NONE', #198, #97, #175 ) ;
#222 = FACE_BOUND ( 'NONE', #118, .T. ) ;
#223 = EDGE_CURVE ( 'NONE', #111, #165, #290, .T. ) ;
#224 = EDGE_LOOP ( 'NONE', ( #374, #130, #218, #312 ) ) ;
#225 = ORIENTED_EDGE ( 'NONE', *, *, #100, .T. ) ;
#226 = DIRECTION ( 'NONE',  ( -1.508455196501571429E-16, -1.000000000000000000, 0.000000000000000000 ) ) ;
#227 = ORIENTED_EDGE ( 'NONE', *, *, #87, .T. ) ;
#228 = PERSON_AND_ORGANIZATION ( #105, #277 ) ;
#229 = DIRECTION ( 'NONE',  ( -1.000000000000000000, -8.537024980200822558E-17, 0.000000000000000000 ) ) ;
#230 = EDGE_CURVE ( 'NONE', #171, #336, #366, .T. ) ;
#231 = PERSON_AND_ORGANIZATION_ROLE ( 'creator' ) ;
#232 = DIRECTION ( 'NONE',  ( -0.000000000000000000, -0.000000000000000000, 1.000000000000000000 ) ) ;
#233 = DATE_AND_TIME ( #296, #350 ) ;
#234 = FACE_OUTER_BOUND ( 'NONE', #351, .T. ) ;
#235 = AXIS2_PLACEMENT_3D ( 'NONE', #338, #335, #132 ) ;
#236 = COORDINATED_UNIVERSAL_TIME_OFFSET ( 6, 0, .BEHIND. ) ;
#237 = VECTOR ( 'NONE', #254, 39.37007874015748854 ) ;
#238 = CARTESIAN_POINT ( 'NONE',  ( 0.000000000000000000, 0.000000000000000000, -0.1574803149606299191 ) ) ;
#239 = EDGE_CURVE ( 'NONE', #45, #186, #243, .T. ) ;
#240 = ADVANCED_BREP_SHAPE_REPRESENTATION ( 'KP82976', ( #79, #316 ), #369 ) ;
#241 = CYLINDRICAL_SURFACE ( 'NONE', #262, 0.08500000000000058897 ) ;
#242 = SHAPE_DEFINITION_REPRESENTATION ( #333, #240 ) ;
#243 = LINE ( 'NONE', #103, #131 ) ;
#244 = CARTESIAN_POINT ( 'NONE',  ( 0.000000000000000000, 0.000000000000000000, 0.000000000000000000 ) ) ;
#245 = AXIS2_PLACEMENT_3D ( 'NONE', #301, #202, #146 ) ;
#246 = LINE ( 'NONE', #244, #163 ) ;
#247 = DIRECTION ( 'NONE',  ( 1.000000000000000000, 0.000000000000000000, 0.000000000000000000 ) ) ;
#248 = DIRECTION ( 'NONE',  ( 1.000000000000000000, 0.000000000000000000, 0.000000000000000000 ) ) ;
#249 = VECTOR ( 'NONE', #57, 39.37007874015748143 ) ;
#250 = ADVANCED_FACE ( 'NONE', ( #42 ), #334, .F. ) ;
#251 = ORIENTED_EDGE ( 'NONE', *, *, #116, .T. ) ;
#252 = VERTEX_POINT ( 'NONE', #123 ) ;
#253 = ADVANCED_FACE ( 'NONE', ( #331, #65, #9 ), #363, .F. ) ;
#254 = DIRECTION ( 'NONE',  ( 1.066638898562342109E-16, -0.7071067811865441310, 0.7071067811865507924 ) ) ;
#255 = ORIENTED_EDGE ( 'NONE', *, *, #279, .F. ) ;
#256 = DIRECTION ( 'NONE',  ( -1.508455196501571429E-16, -1.000000000000000000, 0.000000000000000000 ) ) ;
#257 = ORIENTED_EDGE ( 'NONE', *, *, #200, .T. ) ;
#258 = ORIENTED_EDGE ( 'NONE', *, *, #182, .T. ) ;
#259 = DATE_AND_TIME ( #95, #85 ) ;
#260 = EDGE_LOOP ( 'NONE', ( #353, #197, #257, #35 ) ) ;
#261 = PRODUCT_RELATED_PRODUCT_CATEGORY ( 'detail', '', ( #360 ) ) ;
#262 = AXIS2_PLACEMENT_3D ( 'NONE', #359, #206, #248 ) ;
#263 = LINE ( 'NONE', #238, #249 ) ;
#264 = APPLICATION_CONTEXT ( 'configuration controlled 3d designs of mechanical parts and assemblies' ) ;
#265 = DIRECTION ( 'NONE',  ( 0.000000000000000000, 0.000000000000000000, 1.000000000000000000 ) ) ;
#266 = DIRECTION ( 'NONE',  ( 1.000000000000000000, 0.000000000000000000, 0.000000000000000000 ) ) ;
#267 = EDGE_CURVE ( 'NONE', #113, #77, #181, .T. ) ;
#268 = CARTESIAN_POINT ( 'NONE',  ( 0.5449212598425182685, 0.9055118110236217710, -2.449212707644754886E-19 ) ) ;
#269 = UNCERTAINTY_MEASURE_WITH_UNIT (LENGTH_MEASURE( 1.000000000000000082E-05 ), #383, 'distance_accuracy_value', 'NONE');
#270 = VECTOR ( 'NONE', #229, 39.37007874015748143 ) ;
#271 = PERSON_AND_ORGANIZATION_ROLE ( 'classification_officer' ) ;
#272 = DIRECTION ( 'NONE',  ( 1.000000000000000000, 0.000000000000000000, 0.000000000000000000 ) ) ;
#273 = CARTESIAN_POINT ( 'NONE',  ( 0.6299212598425188991, 0.9055118110236217710, 0.000000000000000000 ) ) ;
#274 = CARTESIAN_POINT ( 'NONE',  ( 0.6299212598425188991, 0.9055118110236217710, -0.1574803149606299191 ) ) ;
#275 = PLANE ( 'NONE',  #2 ) ;
#276 = EDGE_CURVE ( 'NONE', #341, #386, #108, .T. ) ;
#277 = ORGANIZATION ( 'UNSPECIFIED', 'UNSPECIFIED', '' ) ;
#278 = ORIENTED_EDGE ( 'NONE', *, *, #372, .T. ) ;
#279 = EDGE_CURVE ( 'NONE', #194, #111, #375, .T. ) ;
#280 = VERTEX_POINT ( 'NONE', #347 ) ;
#281 = CARTESIAN_POINT ( 'NONE',  ( 0.8661417322834642496, 1.811023622047244208, -0.1574803149606299191 ) ) ;
#282 = ORIENTED_EDGE ( 'NONE', *, *, #142, .F. ) ;
#283 = CC_DESIGN_SECURITY_CLASSIFICATION ( #133, ( #63 ) ) ;
#284 = ORIENTED_EDGE ( 'NONE', *, *, #6, .T. ) ;
#285 = DATE_AND_TIME ( #354, #3 ) ;
#286 = ADVANCED_FACE ( 'NONE', ( #222, #343, #47 ), #44, .T. ) ;
#287 = ORIENTED_EDGE ( 'NONE', *, *, #205, .F. ) ;
#288 = PERSON_AND_ORGANIZATION ( #105, #277 ) ;
#289 = LINE ( 'NONE', #115, #305 ) ;
#290 = CIRCLE ( 'NONE', #99, 0.08500000000000058897 ) ;
#291 = DATE_TIME_ROLE ( 'creation_date' ) ;
#292 = ORIENTED_EDGE ( 'NONE', *, *, #223, .F. ) ;
#293 = ADVANCED_FACE ( 'NONE', ( #52 ), #164, .F. ) ;
#294 = CARTESIAN_POINT ( 'NONE',  ( 0.000000000000000000, 0.000000000000000000, 0.000000000000000000 ) ) ;
#295 = CARTESIAN_POINT ( 'NONE',  ( 0.1512204724409440815, 0.9055118110236218820, -0.1574803149606299191 ) ) ;
#296 = CALENDAR_DATE ( 2022, 27, 4 ) ;
#297 = ORIENTED_EDGE ( 'NONE', *, *, #116, .F. ) ;
#298 = VECTOR ( 'NONE', #88, 39.37007874015748143 ) ;
#299 = APPROVAL_ROLE ( '' ) ;
#300 = APPROVAL_PERSON_ORGANIZATION ( #7, #216, #299 ) ;
#301 = CARTESIAN_POINT ( 'NONE',  ( 0.2362204724409446288, 0.9055118110236218820, 0.000000000000000000 ) ) ;
#302 = DIRECTION ( 'NONE',  ( -0.000000000000000000, -0.000000000000000000, 1.000000000000000000 ) ) ;
#303 = EDGE_CURVE ( 'NONE', #45, #26, #356, .T. ) ;
#304 = CARTESIAN_POINT ( 'NONE',  ( 0.000000000000000000, 0.000000000000000000, -0.1574803149606299191 ) ) ;
#305 = VECTOR ( 'NONE', #5, 39.37007874015748143 ) ;
#306 = DIRECTION ( 'NONE',  ( 1.000000000000000000, 0.000000000000000000, 0.000000000000000000 ) ) ;
#307 = DIRECTION ( 'NONE',  ( -0.000000000000000000, -0.000000000000000000, 1.000000000000000000 ) ) ;
#308 = ORIENTED_EDGE ( 'NONE', *, *, #19, .F. ) ;
#309 = FACE_OUTER_BOUND ( 'NONE', #224, .T. ) ;
#310 = EDGE_LOOP ( 'NONE', ( #380, #220, #129, #225 ) ) ;
#311 = DIRECTION ( 'NONE',  ( -0.000000000000000000, -0.000000000000000000, 1.000000000000000000 ) ) ;
#312 = ORIENTED_EDGE ( 'NONE', *, *, #124, .F. ) ;
#313 = LINE ( 'NONE', #20, #187 ) ;
#314 = ORIENTED_EDGE ( 'NONE', *, *, #323, .F. ) ;
#315 = VECTOR ( 'NONE', #365, 39.37007874015748854 ) ;
#316 = AXIS2_PLACEMENT_3D ( 'NONE', #294, #265, #31 ) ;
#317 = APPROVAL ( #145, 'UNSPECIFIED' ) ;
#318 = ORIENTED_EDGE ( 'NONE', *, *, #46, .T. ) ;
#319 = PERSON_AND_ORGANIZATION ( #105, #277 ) ;
#320 = DIRECTION ( 'NONE',  ( 1.000000000000000000, 0.000000000000000000, 0.000000000000000000 ) ) ;
#321 = COORDINATED_UNIVERSAL_TIME_OFFSET ( 6, 0, .BEHIND. ) ;
#322 = CARTESIAN_POINT ( 'NONE',  ( 0.2362204724409446288, 0.9055118110236218820, -2.449212707644754886E-19 ) ) ;
#323 = EDGE_CURVE ( 'NONE', #336, #341, #313, .T. ) ;
#324 = CIRCLE ( 'NONE', #127, 0.08500000000000046407 ) ;
#325 = DIRECTION ( 'NONE',  ( -1.000000000000000000, -8.537024980200822558E-17, 0.000000000000000000 ) ) ;
#326 =( NAMED_UNIT ( * ) PLANE_ANGLE_UNIT ( ) SI_UNIT ( $, .RADIAN. ) );
#327 = ORIENTED_EDGE ( 'NONE', *, *, #372, .F. ) ;
#328 = APPROVAL_STATUS ( 'not_yet_approved' ) ;
#329 = DIRECTION ( 'NONE',  ( -0.000000000000000000, -0.000000000000000000, 1.000000000000000000 ) ) ;
#330 = CC_DESIGN_DATE_AND_TIME_ASSIGNMENT ( #357, #291, ( #104 ) ) ;
#331 = FACE_BOUND ( 'NONE', #189, .T. ) ;
#332 = CARTESIAN_POINT ( 'NONE',  ( 0.5449212598425184906, 0.9055118110236217710, -0.1574803149606299191 ) ) ;
#333 = PRODUCT_DEFINITION_SHAPE ( 'NONE', 'NONE',  #104 ) ;
#334 = PLANE ( 'NONE',  #154 ) ;
#335 = DIRECTION ( 'NONE',  ( -6.036588254658983872E-17, 0.7071067811865509034, 0.7071067811865442421 ) ) ;
#336 = VERTEX_POINT ( 'NONE', #219 ) ;
#337 = ADVANCED_FACE ( 'NONE', ( #309 ), #370, .F. ) ;
#338 = CARTESIAN_POINT ( 'NONE',  ( 0.8661417322834640276, -1.306535996969864031E-16, 0.000000000000000000 ) ) ;
#339 = CLOSED_SHELL ( 'NONE', ( #11, #364, #253, #286, #209, #250, #293, #337, #76, #155 ) ) ;
#340 = AXIS2_PLACEMENT_3D ( 'NONE', #322, #30, #28 ) ;
#341 = VERTEX_POINT ( 'NONE', #345 ) ;
#342 = LOCAL_TIME ( 10, 32, 23.00000000000000000, #361 ) ;
#343 = FACE_OUTER_BOUND ( 'NONE', #112, .T. ) ;
#344 = ORIENTED_EDGE ( 'NONE', *, *, #303, .T. ) ;
#345 = CARTESIAN_POINT ( 'NONE',  ( 0.8661417322834640276, 0.000000000000000000, 0.000000000000000000 ) ) ;
#346 = ORIENTED_EDGE ( 'NONE', *, *, #6, .F. ) ;
#347 = CARTESIAN_POINT ( 'NONE',  ( -2.731847993664263218E-16, 1.811023622047244208, -0.1574803149606299191 ) ) ;
#348 = ORIENTED_EDGE ( 'NONE', *, *, #93, .T. ) ;
#349 = VECTOR ( 'NONE', #256, 39.37007874015748143 ) ;
#350 = LOCAL_TIME ( 10, 32, 23.00000000000000000, #321 ) ;
#351 = EDGE_LOOP ( 'NONE', ( #384, #53, #162, #139 ) ) ;
#352 = APPLICATION_PROTOCOL_DEFINITION ( 'international standard', 'config_control_design', 1994, #264 ) ;
#353 = ORIENTED_EDGE ( 'NONE', *, *, #67, .F. ) ;
#354 = CALENDAR_DATE ( 2022, 27, 4 ) ;
#355 = FACE_OUTER_BOUND ( 'NONE', #137, .T. ) ;
#356 = CIRCLE ( 'NONE', #21, 0.08500000000000053346 ) ;
#357 = DATE_AND_TIME ( #147, #150 ) ;
#358 = CARTESIAN_POINT ( 'NONE',  ( -2.731847993664263218E-16, -2.045963357459698779E-16, 0.000000000000000000 ) ) ;
#359 = CARTESIAN_POINT ( 'NONE',  ( 0.6299212598425188991, 0.9055118110236217710, 0.000000000000000000 ) ) ;
#360 = PRODUCT ( 'KP82976', 'KP82976', '', ( #29 ) ) ;
#361 = COORDINATED_UNIVERSAL_TIME_OFFSET ( 6, 0, .BEHIND. ) ;
#362 = AXIS2_PLACEMENT_3D ( 'NONE', #78, #373, #14 ) ;
#363 = PLANE ( 'NONE',  #376 ) ;
#364 = ADVANCED_FACE ( 'NONE', ( #23 ), #190, .F. ) ;
#365 = DIRECTION ( 'NONE',  ( 0.000000000000000000, -0.7071067811865490160, 0.7071067811865460184 ) ) ;
#366 = LINE ( 'NONE', #211, #315 ) ;
#367 = AXIS2_PLACEMENT_3D ( 'NONE', #49, #381, #196 ) ;
#368 = DIRECTION ( 'NONE',  ( -0.000000000000000000, -0.000000000000000000, 1.000000000000000000 ) ) ;
#369 =( GEOMETRIC_REPRESENTATION_CONTEXT ( 3 ) GLOBAL_UNCERTAINTY_ASSIGNED_CONTEXT ( ( #269 ) ) GLOBAL_UNIT_ASSIGNED_CONTEXT ( ( #383, #326, #117 ) ) REPRESENTATION_CONTEXT ( 'NONE', 'WORKASPACE' ) );
#370 = PLANE ( 'NONE',  #235 ) ;
#371 = ORIENTED_EDGE ( 'NONE', *, *, #230, .T. ) ;
#372 = EDGE_CURVE ( 'NONE', #171, #386, #161, .T. ) ;
#373 = DIRECTION ( 'NONE',  ( 6.036588254658941964E-17, -0.7071067811865461294, -0.7071067811865490160 ) ) ;
#374 = ORIENTED_EDGE ( 'NONE', *, *, #267, .F. ) ;
#375 = LINE ( 'NONE', #188, #149 ) ;
#376 = AXIS2_PLACEMENT_3D ( 'NONE', #185, #101, #66 ) ;
#377 = EDGE_LOOP ( 'NONE', ( #80, #114, #327, #371 ) ) ;
#378 = CARTESIAN_POINT ( 'NONE',  ( -1.187759997245330602E-17, 0.07874015748031487627, -0.07874015748031577833 ) ) ;
#379 = EDGE_CURVE ( 'NONE', #73, #280, #193, .T. ) ;
#380 = ORIENTED_EDGE ( 'NONE', *, *, #379, .F. ) ;
#381 = DIRECTION ( 'NONE',  ( 0.000000000000000000, 0.000000000000000000, 1.000000000000000000 ) ) ;
#382 = ORIENTED_EDGE ( 'NONE', *, *, #200, .F. ) ;
#383 =( CONVERSION_BASED_UNIT ( 'INCH', #140 ) LENGTH_UNIT ( ) NAMED_UNIT ( #83 ) );
#384 = ORIENTED_EDGE ( 'NONE', *, *, #192, .F. ) ;
#385 = COORDINATED_UNIVERSAL_TIME_OFFSET ( 6, 0, .BEHIND. ) ;
#386 = VERTEX_POINT ( 'NONE', #56 ) ;
#387 = PERSON_AND_ORGANIZATION ( #105, #277 ) ;
#388 = CYLINDRICAL_SURFACE ( 'NONE', #170, 0.08500000000000058897 ) ;
ENDSEC;
END-ISO-10303-21;
