ISO-10303-21;
HEADER;
FILE_DESCRIPTION (( 'STEP AP203' ),
    '1' );
FILE_NAME ('J400.STEP',
    '2022-04-27T15:25:11',
    ( '' ),
    ( '' ),
    'SwSTEP 2.0',
    'SolidWorks 2020',
    '' );
FILE_SCHEMA (( 'CONFIG_CONTROL_DESIGN' ));
ENDSEC;

DATA;
#1 = APPROVAL_DATE_TIME ( #345, #226 ) ;
#2 = ORIENTED_EDGE ( 'NONE', *, *, #189, .F. ) ;
#3 = VECTOR ( 'NONE', #208, 39.37007874015748143 ) ;
#4 = VECTOR ( 'NONE', #52, 39.37007874015748143 ) ;
#5 = FACE_OUTER_BOUND ( 'NONE', #332, .T. ) ;
#6 = APPROVAL_ROLE ( '' ) ;
#7 = DIRECTION ( 'NONE',  ( 0.000000000000000000, -1.000000000000000000, 0.000000000000000000 ) ) ;
#8 = EDGE_CURVE ( 'NONE', #201, #395, #310, .T. ) ;
#9 = CARTESIAN_POINT ( 'NONE',  ( 1.250000000000000000, 0.1250000000000000555, 0.000000000000000000 ) ) ;
#10 = APPROVAL_DATE_TIME ( #161, #86 ) ;
#11 =( GEOMETRIC_REPRESENTATION_CONTEXT ( 3 ) GLOBAL_UNCERTAINTY_ASSIGNED_CONTEXT ( ( #163 ) ) GLOBAL_UNIT_ASSIGNED_CONTEXT ( ( #123, #235, #209 ) ) REPRESENTATION_CONTEXT ( 'NONE', 'WORKASPACE' ) );
#12 = CARTESIAN_POINT ( 'NONE',  ( 0.000000000000000000, 0.000000000000000000, 0.000000000000000000 ) ) ;
#13 = DIRECTION ( 'NONE',  ( 0.000000000000000000, 1.000000000000000000, 0.000000000000000000 ) ) ;
#14 = CARTESIAN_POINT ( 'NONE',  ( 0.7499999999999998890, 0.1250000000000000000, 0.1199999999999999956 ) ) ;
#15 = VECTOR ( 'NONE', #278, 39.37007874015748143 ) ;
#16 = LOCAL_TIME ( 10, 25, 11.00000000000000000, #155 ) ;
#17 = ORIENTED_EDGE ( 'NONE', *, *, #140, .T. ) ;
#18 = EDGE_CURVE ( 'NONE', #85, #59, #125, .T. ) ;
#19 = ORIENTED_EDGE ( 'NONE', *, *, #108, .T. ) ;
#20 = LOCAL_TIME ( 10, 25, 11.00000000000000000, #105 ) ;
#21 = APPROVAL_PERSON_ORGANIZATION ( #317, #86, #6 ) ;
#22 = ORIENTED_EDGE ( 'NONE', *, *, #400, .T. ) ;
#23 = PRODUCT_DEFINITION_SHAPE ( 'NONE', 'NONE',  #207 ) ;
#24 = ADVANCED_FACE ( 'NONE', ( #183 ), #154, .F. ) ;
#25 = ORIENTED_EDGE ( 'NONE', *, *, #140, .F. ) ;
#26 = LINE ( 'NONE', #148, #68 ) ;
#27 = CARTESIAN_POINT ( 'NONE',  ( 0.000000000000000000, 0.3849999999999986766, -0.2649999999999999023 ) ) ;
#28 = CARTESIAN_POINT ( 'NONE',  ( 0.000000000000000000, 0.000000000000000000, 0.000000000000000000 ) ) ;
#29 = VECTOR ( 'NONE', #122, 39.37007874015748143 ) ;
#30 = DIRECTION ( 'NONE',  ( 0.000000000000000000, 0.000000000000000000, -1.000000000000000000 ) ) ;
#31 = EDGE_LOOP ( 'NONE', ( #171, #57, #364, #22, #53 ) ) ;
#32 = APPROVAL_STATUS ( 'not_yet_approved' ) ;
#33 = ADVANCED_FACE ( 'NONE', ( #5 ), #251, .T. ) ;
#34 = LINE ( 'NONE', #156, #267 ) ;
#35 = CARTESIAN_POINT ( 'NONE',  ( 2.000000000000000000, 0.7099999999999996314, 0.000000000000000000 ) ) ;
#36 = VECTOR ( 'NONE', #321, 39.37007874015748143 ) ;
#37 = CARTESIAN_POINT ( 'NONE',  ( 0.000000000000000000, 0.000000000000000000, 0.000000000000000000 ) ) ;
#38 = COORDINATED_UNIVERSAL_TIME_OFFSET ( 6, 0, .BEHIND. ) ;
#39 = DIRECTION ( 'NONE',  ( -0.000000000000000000, -0.000000000000000000, 1.000000000000000000 ) ) ;
#40 = PERSON_AND_ORGANIZATION ( #211, #368 ) ;
#41 = LINE ( 'NONE', #12, #172 ) ;
#42 = DIRECTION ( 'NONE',  ( -1.000000000000000000, 0.000000000000000000, -0.000000000000000000 ) ) ;
#43 = CC_DESIGN_DATE_AND_TIME_ASSIGNMENT ( #252, #71, ( #207 ) ) ;
#44 = LINE ( 'NONE', #131, #152 ) ;
#45 = DIRECTION ( 'NONE',  ( 1.000000000000000000, 0.000000000000000000, 0.000000000000000000 ) ) ;
#46 = ORIENTED_EDGE ( 'NONE', *, *, #221, .T. ) ;
#47 = VECTOR ( 'NONE', #206, 39.37007874015748143 ) ;
#48 = VECTOR ( 'NONE', #120, 39.37007874015748143 ) ;
#49 = FACE_OUTER_BOUND ( 'NONE', #31, .T. ) ;
#50 = ORIENTED_EDGE ( 'NONE', *, *, #78, .F. ) ;
#51 = EDGE_CURVE ( 'NONE', #397, #334, #99, .T. ) ;
#52 = DIRECTION ( 'NONE',  ( -1.000000000000000000, 0.000000000000000000, 0.000000000000000000 ) ) ;
#53 = ORIENTED_EDGE ( 'NONE', *, *, #189, .T. ) ;
#54 = ADVANCED_FACE ( 'NONE', ( #218 ), #181, .T. ) ;
#55 = AXIS2_PLACEMENT_3D ( 'NONE', #403, #149, #374 ) ;
#56 = ORIENTED_EDGE ( 'NONE', *, *, #389, .T. ) ;
#57 = ORIENTED_EDGE ( 'NONE', *, *, #18, .F. ) ;
#58 = DIRECTION ( 'NONE',  ( 1.000000000000000000, 0.000000000000000000, -0.000000000000000000 ) ) ;
#59 = VERTEX_POINT ( 'NONE', #280 ) ;
#60 = MECHANICAL_CONTEXT ( 'NONE', #377, 'mechanical' ) ;
#61 = ORIENTED_EDGE ( 'NONE', *, *, #405, .T. ) ;
#62 = EDGE_CURVE ( 'NONE', #59, #326, #184, .T. ) ;
#63 = COORDINATED_UNIVERSAL_TIME_OFFSET ( 6, 0, .BEHIND. ) ;
#64 = CARTESIAN_POINT ( 'NONE',  ( 0.000000000000000000, 0.3250000000000036193, 0.4450000000000001732 ) ) ;
#65 = CARTESIAN_POINT ( 'NONE',  ( 0.000000000000000000, 0.000000000000000000, 0.1199999999999999956 ) ) ;
#66 = LINE ( 'NONE', #91, #29 ) ;
#67 = VECTOR ( 'NONE', #350, 39.37007874015748143 ) ;
#68 = VECTOR ( 'NONE', #243, 39.37007874015748143 ) ;
#69 = CARTESIAN_POINT ( 'NONE',  ( 0.7499999999999998890, 0.1250000000000000000, 0.000000000000000000 ) ) ;
#70 = CC_DESIGN_DATE_AND_TIME_ASSIGNMENT ( #342, #381, ( #250 ) ) ;
#71 = DATE_TIME_ROLE ( 'creation_date' ) ;
#72 = CARTESIAN_POINT ( 'NONE',  ( 2.000000000000000000, 0.6499999999999994671, 0.000000000000000000 ) ) ;
#73 = FACE_OUTER_BOUND ( 'NONE', #305, .T. ) ;
#74 = VECTOR ( 'NONE', #359, 39.37007874015748143 ) ;
#75 = DIRECTION ( 'NONE',  ( -1.000000000000000000, 0.000000000000000000, 0.000000000000000000 ) ) ;
#76 = PLANE ( 'NONE',  #139 ) ;
#77 = ORIENTED_EDGE ( 'NONE', *, *, #286, .T. ) ;
#78 = EDGE_CURVE ( 'NONE', #89, #397, #210, .T. ) ;
#79 = CARTESIAN_POINT ( 'NONE',  ( 0.000000000000000000, 0.6499999999999994671, 0.000000000000000000 ) ) ;
#80 = MANIFOLD_SOLID_BREP ( 'Cut-Extrude2', #295 ) ;
#81 = EDGE_LOOP ( 'NONE', ( #300, #114, #271, #61, #399, #83, #195, #84 ) ) ;
#82 = CARTESIAN_POINT ( 'NONE',  ( 0.000000000000000000, 0.000000000000000000, 0.1199999999999999956 ) ) ;
#83 = ORIENTED_EDGE ( 'NONE', *, *, #112, .F. ) ;
#84 = ORIENTED_EDGE ( 'NONE', *, *, #169, .T. ) ;
#85 = VERTEX_POINT ( 'NONE', #248 ) ;
#86 = APPROVAL ( #32, 'UNSPECIFIED' ) ;
#87 = VECTOR ( 'NONE', #39, 39.37007874015748143 ) ;
#88 = CC_DESIGN_APPROVAL ( #86, ( #167 ) ) ;
#89 = VERTEX_POINT ( 'NONE', #65 ) ;
#90 = LINE ( 'NONE', #200, #145 ) ;
#91 = CARTESIAN_POINT ( 'NONE',  ( 0.7500000000000002220, 0.000000000000000000, 0.000000000000000000 ) ) ;
#92 = EDGE_CURVE ( 'NONE', #201, #233, #380, .T. ) ;
#93 = CARTESIAN_POINT ( 'NONE',  ( 0.000000000000000000, 0.000000000000000000, 0.000000000000000000 ) ) ;
#94 = APPROVAL_STATUS ( 'not_yet_approved' ) ;
#95 = DIRECTION ( 'NONE',  ( 0.000000000000000000, 0.000000000000000000, 1.000000000000000000 ) ) ;
#96 = CARTESIAN_POINT ( 'NONE',  ( 2.000000000000000000, 0.7099999999999996314, 0.05999999999999999778 ) ) ;
#97 = EDGE_CURVE ( 'NONE', #334, #357, #66, .T. ) ;
#98 = PERSON_AND_ORGANIZATION ( #211, #368 ) ;
#99 = LINE ( 'NONE', #93, #249 ) ;
#100 = DIMENSIONAL_EXPONENTS ( 1.000000000000000000, 0.000000000000000000, 0.000000000000000000, 0.000000000000000000, 0.000000000000000000, 0.000000000000000000, 0.000000000000000000 ) ;
#101 = CALENDAR_DATE ( 2022, 27, 4 ) ;
#102 = PLANE ( 'NONE',  #366 ) ;
#103 = VECTOR ( 'NONE', #106, 39.37007874015748143 ) ;
#104 = APPROVAL_PERSON_ORGANIZATION ( #224, #341, #190 ) ;
#105 = COORDINATED_UNIVERSAL_TIME_OFFSET ( 6, 0, .BEHIND. ) ;
#106 = DIRECTION ( 'NONE',  ( 2.185478394931410575E-15, -1.000000000000000000, 0.000000000000000000 ) ) ;
#107 = DIRECTION ( 'NONE',  ( -0.000000000000000000, -0.000000000000000000, -1.000000000000000000 ) ) ;
#108 = EDGE_CURVE ( 'NONE', #263, #143, #185, .T. ) ;
#109 = CARTESIAN_POINT ( 'NONE',  ( 0.000000000000000000, 0.000000000000000000, 0.000000000000000000 ) ) ;
#110 = AXIS2_PLACEMENT_3D ( 'NONE', #282, #407, #216 ) ;
#111 = DIRECTION ( 'NONE',  ( 0.000000000000000000, -0.000000000000000000, 1.000000000000000000 ) ) ;
#112 = EDGE_CURVE ( 'NONE', #273, #238, #258, .T. ) ;
#113 = PERSON_AND_ORGANIZATION ( #211, #368 ) ;
#114 = ORIENTED_EDGE ( 'NONE', *, *, #338, .T. ) ;
#115 =( LENGTH_UNIT ( ) NAMED_UNIT ( * ) SI_UNIT ( $, .METRE. ) );
#116 = ORIENTED_EDGE ( 'NONE', *, *, #320, .T. ) ;
#117 = ORIENTED_EDGE ( 'NONE', *, *, #51, .T. ) ;
#118 = ORIENTED_EDGE ( 'NONE', *, *, #177, .T. ) ;
#119 = ORIENTED_EDGE ( 'NONE', *, *, #389, .F. ) ;
#120 = DIRECTION ( 'NONE',  ( -0.000000000000000000, -0.000000000000000000, 1.000000000000000000 ) ) ;
#121 = CC_DESIGN_APPROVAL ( #226, ( #250 ) ) ;
#122 = DIRECTION ( 'NONE',  ( -0.000000000000000000, -0.000000000000000000, 1.000000000000000000 ) ) ;
#123 =( CONVERSION_BASED_UNIT ( 'INCH', #246 ) LENGTH_UNIT ( ) NAMED_UNIT ( #100 ) );
#124 = EDGE_CURVE ( 'NONE', #365, #176, #335, .T. ) ;
#125 = LINE ( 'NONE', #96, #15 ) ;
#126 = CARTESIAN_POINT ( 'NONE',  ( 1.250000000000000000, 0.1250000000000000555, 0.000000000000000000 ) ) ;
#127 = DIRECTION ( 'NONE',  ( 0.000000000000000000, -1.000000000000000000, 0.000000000000000000 ) ) ;
#128 = APPLICATION_CONTEXT ( 'configuration controlled 3d designs of mechanical parts and assemblies' ) ;
#129 = DIRECTION ( 'NONE',  ( 1.000000000000000000, 0.000000000000000000, 0.000000000000000000 ) ) ;
#130 = ORIENTED_EDGE ( 'NONE', *, *, #320, .F. ) ;
#131 = CARTESIAN_POINT ( 'NONE',  ( 2.000000000000000000, 0.000000000000000000, 0.1199999999999999956 ) ) ;
#132 = PERSON_AND_ORGANIZATION ( #211, #368 ) ;
#133 = LINE ( 'NONE', #72, #347 ) ;
#134 = COORDINATED_UNIVERSAL_TIME_OFFSET ( 6, 0, .BEHIND. ) ;
#135 = ADVANCED_FACE ( 'NONE', ( #307 ), #343, .F. ) ;
#136 = FACE_OUTER_BOUND ( 'NONE', #269, .T. ) ;
#137 = CARTESIAN_POINT ( 'NONE',  ( 1.250000000000000000, 0.000000000000000000, 0.1199999999999999956 ) ) ;
#138 = FACE_OUTER_BOUND ( 'NONE', #240, .T. ) ;
#139 = AXIS2_PLACEMENT_3D ( 'NONE', #37, #294, #42 ) ;
#140 = EDGE_CURVE ( 'NONE', #176, #334, #34, .T. ) ;
#141 = EDGE_LOOP ( 'NONE', ( #117, #223, #237, #304 ) ) ;
#142 = CC_DESIGN_PERSON_AND_ORGANIZATION_ASSIGNMENT ( #212, #348, ( #167 ) ) ;
#143 = VERTEX_POINT ( 'NONE', #137 ) ;
#144 = ORIENTED_EDGE ( 'NONE', *, *, #316, .F. ) ;
#145 = VECTOR ( 'NONE', #198, 39.37007874015748143 ) ;
#146 = ORIENTED_EDGE ( 'NONE', *, *, #51, .F. ) ;
#147 = ORIENTED_EDGE ( 'NONE', *, *, #92, .F. ) ;
#148 = CARTESIAN_POINT ( 'NONE',  ( 2.000000000000000000, 0.7099999999999996314, 0.1199999999999999956 ) ) ;
#149 = DIRECTION ( 'NONE',  ( -0.000000000000000000, -0.000000000000000000, 1.000000000000000000 ) ) ;
#150 = EDGE_CURVE ( 'NONE', #273, #143, #222, .T. ) ;
#151 = DIRECTION ( 'NONE',  ( -0.000000000000000000, 0.000000000000000000, -1.000000000000000000 ) ) ;
#152 = VECTOR ( 'NONE', #107, 39.37007874015748143 ) ;
#153 = DIRECTION ( 'NONE',  ( -1.000000000000000000, 0.000000000000000000, -0.000000000000000000 ) ) ;
#154 = CYLINDRICAL_SURFACE ( 'NONE', #55, 0.2500000000000000555 ) ;
#155 = COORDINATED_UNIVERSAL_TIME_OFFSET ( 6, 0, .BEHIND. ) ;
#156 = CARTESIAN_POINT ( 'NONE',  ( 0.7499999999999998890, 0.1250000000000000000, 0.000000000000000000 ) ) ;
#157 = SHAPE_DEFINITION_REPRESENTATION ( #23, #309 ) ;
#158 = AXIS2_PLACEMENT_3D ( 'NONE', #285, #30, #153 ) ;
#159 = DIRECTION ( 'NONE',  ( 0.000000000000000000, 0.000000000000000000, 1.000000000000000000 ) ) ;
#160 = FACE_OUTER_BOUND ( 'NONE', #141, .T. ) ;
#161 = DATE_AND_TIME ( #101, #16 ) ;
#162 = CARTESIAN_POINT ( 'NONE',  ( 2.000000000000000000, 0.7099999999999996314, 0.05999999999999999778 ) ) ;
#163 = UNCERTAINTY_MEASURE_WITH_UNIT (LENGTH_MEASURE( 1.000000000000000082E-05 ), #123, 'distance_accuracy_value', 'NONE');
#164 = APPROVAL_STATUS ( 'not_yet_approved' ) ;
#165 = FACE_OUTER_BOUND ( 'NONE', #393, .T. ) ;
#166 = VECTOR ( 'NONE', #127, 39.37007874015748143 ) ;
#167 = PRODUCT_DEFINITION_FORMATION_WITH_SPECIFIED_SOURCE ( 'ANY', '', #387, .NOT_KNOWN. ) ;
#168 = CARTESIAN_POINT ( 'NONE',  ( 2.000000000000000000, 0.6500000000000003553, 0.1200000000000000233 ) ) ;
#169 = EDGE_CURVE ( 'NONE', #143, #276, #355, .T. ) ;
#170 = DIRECTION ( 'NONE',  ( 0.000000000000000000, 0.000000000000000000, 1.000000000000000000 ) ) ;
#171 = ORIENTED_EDGE ( 'NONE', *, *, #62, .F. ) ;
#172 = VECTOR ( 'NONE', #13, 39.37007874015748143 ) ;
#173 = PLANE ( 'NONE',  #308 ) ;
#174 = ORIENTED_EDGE ( 'NONE', *, *, #281, .F. ) ;
#175 = FACE_OUTER_BOUND ( 'NONE', #336, .T. ) ;
#176 = VERTEX_POINT ( 'NONE', #69 ) ;
#177 = EDGE_CURVE ( 'NONE', #238, #357, #188, .T. ) ;
#178 = EDGE_LOOP ( 'NONE', ( #230, #322, #203, #297 ) ) ;
#179 = ORIENTED_EDGE ( 'NONE', *, *, #338, .F. ) ;
#180 = CARTESIAN_POINT ( 'NONE',  ( 2.000000000000000000, 0.6500000000000003553, 0.1199999999999999956 ) ) ;
#181 = PLANE ( 'NONE',  #110 ) ;
#182 = DIRECTION ( 'NONE',  ( 0.000000000000000000, 1.000000000000000000, 0.000000000000000000 ) ) ;
#183 = FACE_OUTER_BOUND ( 'NONE', #178, .T. ) ;
#184 = LINE ( 'NONE', #35, #166 ) ;
#185 = LINE ( 'NONE', #244, #3 ) ;
#186 = CALENDAR_DATE ( 2022, 27, 4 ) ;
#187 = VECTOR ( 'NONE', #7, 39.37007874015748143 ) ;
#188 = LINE ( 'NONE', #14, #103 ) ;
#189 = EDGE_CURVE ( 'NONE', #276, #326, #44, .T. ) ;
#190 = APPROVAL_ROLE ( '' ) ;
#191 = CARTESIAN_POINT ( 'NONE',  ( 1.250000000000000000, 0.000000000000000000, 0.000000000000000000 ) ) ;
#192 = CARTESIAN_POINT ( 'NONE',  ( 0.7499999999999998890, 0.1250000000000000000, 0.1199999999999999956 ) ) ;
#193 = ORIENTED_EDGE ( 'NONE', *, *, #18, .T. ) ;
#194 = DIRECTION ( 'NONE',  ( -1.000000000000000000, -2.185478394931410575E-15, 0.000000000000000000 ) ) ;
#195 = ORIENTED_EDGE ( 'NONE', *, *, #150, .T. ) ;
#196 = CC_DESIGN_PERSON_AND_ORGANIZATION_ASSIGNMENT ( #113, #270, ( #387 ) ) ;
#197 = DIRECTION ( 'NONE',  ( 0.000000000000000000, 0.000000000000000000, 1.000000000000000000 ) ) ;
#198 = DIRECTION ( 'NONE',  ( 1.000000000000000000, 0.000000000000000000, 0.000000000000000000 ) ) ;
#199 = ORIENTED_EDGE ( 'NONE', *, *, #281, .T. ) ;
#200 = CARTESIAN_POINT ( 'NONE',  ( 0.000000000000000000, 0.000000000000000000, 0.1199999999999999956 ) ) ;
#201 = VERTEX_POINT ( 'NONE', #290 ) ;
#202 = ADVANCED_FACE ( 'NONE', ( #138 ), #264, .T. ) ;
#203 = ORIENTED_EDGE ( 'NONE', *, *, #124, .F. ) ;
#204 = ORIENTED_EDGE ( 'NONE', *, *, #286, .F. ) ;
#205 = VERTEX_POINT ( 'NONE', #168 ) ;
#206 = DIRECTION ( 'NONE',  ( -1.000000000000000000, 0.000000000000000000, 0.000000000000000000 ) ) ;
#207 = PRODUCT_DEFINITION ( 'UNKNOWN', '', #167, #383 ) ;
#208 = DIRECTION ( 'NONE',  ( -0.000000000000000000, -0.000000000000000000, 1.000000000000000000 ) ) ;
#209 =( NAMED_UNIT ( * ) SI_UNIT ( $, .STERADIAN. ) SOLID_ANGLE_UNIT ( ) );
#210 = LINE ( 'NONE', #340, #384 ) ;
#211 = PERSON ( 'UNSPECIFIED', 'UNSPECIFIED', 'UNSPECIFIED', ('UNSPECIFIED'), ('UNSPECIFIED'), ('UNSPECIFIED') ) ;
#212 = PERSON_AND_ORGANIZATION ( #211, #368 ) ;
#213 = LOCAL_TIME ( 10, 25, 11.00000000000000000, #134 ) ;
#214 = DIRECTION ( 'NONE',  ( 1.000000000000000000, 0.000000000000000000, 0.000000000000000000 ) ) ;
#215 = PERSON_AND_ORGANIZATION_ROLE ( 'creator' ) ;
#216 = DIRECTION ( 'NONE',  ( -0.000000000000000000, 0.000000000000000000, 1.000000000000000000 ) ) ;
#217 = PERSON_AND_ORGANIZATION_ROLE ( 'classification_officer' ) ;
#218 = FACE_OUTER_BOUND ( 'NONE', #360, .T. ) ;
#219 = PERSON_AND_ORGANIZATION_ROLE ( 'creator' ) ;
#220 = AXIS2_PLACEMENT_3D ( 'NONE', #371, #95, #214 ) ;
#221 = EDGE_CURVE ( 'NONE', #176, #238, #318, .T. ) ;
#222 = LINE ( 'NONE', #382, #74 ) ;
#223 = ORIENTED_EDGE ( 'NONE', *, *, #97, .T. ) ;
#224 = PERSON_AND_ORGANIZATION ( #211, #368 ) ;
#225 = CARTESIAN_POINT ( 'NONE',  ( 0.000000000000000000, 0.6500000000000001332, 0.1200000000000000511 ) ) ;
#226 = APPROVAL ( #164, 'UNSPECIFIED' ) ;
#227 = PLANE ( 'NONE',  #327 ) ;
#228 = CARTESIAN_POINT ( 'NONE',  ( 0.7499999999999998890, 0.1250000000000000000, 0.000000000000000000 ) ) ;
#229 = VECTOR ( 'NONE', #369, 39.37007874015748854 ) ;
#230 = ORIENTED_EDGE ( 'NONE', *, *, #112, .T. ) ;
#231 = DIRECTION ( 'NONE',  ( -1.000000000000000000, 0.000000000000000000, 0.000000000000000000 ) ) ;
#232 = CARTESIAN_POINT ( 'NONE',  ( 1.250000000000000000, 0.1250000000000000555, 0.000000000000000000 ) ) ;
#233 = VERTEX_POINT ( 'NONE', #225 ) ;
#234 = ADVANCED_FACE ( 'NONE', ( #160 ), #227, .F. ) ;
#235 =( NAMED_UNIT ( * ) PLANE_ANGLE_UNIT ( ) SI_UNIT ( $, .RADIAN. ) );
#236 = ORIENTED_EDGE ( 'NONE', *, *, #316, .T. ) ;
#237 = ORIENTED_EDGE ( 'NONE', *, *, #405, .F. ) ;
#238 = VERTEX_POINT ( 'NONE', #192 ) ;
#239 = ADVANCED_FACE ( 'NONE', ( #73 ), #76, .T. ) ;
#240 = EDGE_LOOP ( 'NONE', ( #147, #333, #130, #50, #275 ) ) ;
#241 = VECTOR ( 'NONE', #346, 39.37007874015748854 ) ;
#242 = LOCAL_TIME ( 10, 25, 11.00000000000000000, #38 ) ;
#243 = DIRECTION ( 'NONE',  ( 0.000000000000000000, -1.000000000000000000, 0.000000000000000000 ) ) ;
#244 = CARTESIAN_POINT ( 'NONE',  ( 1.250000000000000000, 0.000000000000000000, 0.000000000000000000 ) ) ;
#245 = ORIENTED_EDGE ( 'NONE', *, *, #124, .T. ) ;
#246 = LENGTH_MEASURE_WITH_UNIT ( LENGTH_MEASURE( 0.02539999999999999897 ), #115 );
#247 = EDGE_CURVE ( 'NONE', #89, #233, #353, .T. ) ;
#248 = CARTESIAN_POINT ( 'NONE',  ( 2.000000000000000000, 0.7099999999999996314, 0.05999999999999999778 ) ) ;
#249 = VECTOR ( 'NONE', #129, 39.37007874015748143 ) ;
#250 = SECURITY_CLASSIFICATION ( '', '', #376 ) ;
#251 = PLANE ( 'NONE',  #314 ) ;
#252 = DATE_AND_TIME ( #379, #20 ) ;
#253 = DIRECTION ( 'NONE',  ( 0.000000000000000000, 0.7071067811865486830, 0.7071067811865464625 ) ) ;
#254 = ADVANCED_FACE ( 'NONE', ( #165 ), #102, .F. ) ;
#255 = LINE ( 'NONE', #109, #67 ) ;
#256 = DATE_AND_TIME ( #287, #329 ) ;
#257 = CC_DESIGN_PERSON_AND_ORGANIZATION_ASSIGNMENT ( #40, #219, ( #167 ) ) ;
#258 = CIRCLE ( 'NONE', #274, 0.2500000000000000555 ) ;
#259 = CC_DESIGN_APPROVAL ( #341, ( #207 ) ) ;
#260 = CARTESIAN_POINT ( 'NONE',  ( 1.250000000000000000, 0.1250000000000000555, 0.1199999999999999956 ) ) ;
#261 = APPROVAL_PERSON_ORGANIZATION ( #352, #226, #284 ) ;
#262 = CARTESIAN_POINT ( 'NONE',  ( 0.000000000000000000, 0.000000000000000000, 0.1199999999999999956 ) ) ;
#263 = VERTEX_POINT ( 'NONE', #191 ) ;
#264 = PLANE ( 'NONE',  #265 ) ;
#265 = AXIS2_PLACEMENT_3D ( 'NONE', #262, #231, #170 ) ;
#266 = CARTESIAN_POINT ( 'NONE',  ( 0.000000000000000000, 0.000000000000000000, 0.1199999999999999956 ) ) ;
#267 = VECTOR ( 'NONE', #283, 39.37007874015748143 ) ;
#268 = CARTESIAN_POINT ( 'NONE',  ( 2.000000000000000000, 0.7099999999999996314, 0.1199999999999999956 ) ) ;
#269 = EDGE_LOOP ( 'NONE', ( #118, #363, #25, #46 ) ) ;
#270 = PERSON_AND_ORGANIZATION_ROLE ( 'design_owner' ) ;
#271 = ORIENTED_EDGE ( 'NONE', *, *, #247, .F. ) ;
#272 = CC_DESIGN_PERSON_AND_ORGANIZATION_ASSIGNMENT ( #98, #215, ( #207 ) ) ;
#273 = VERTEX_POINT ( 'NONE', #260 ) ;
#274 = AXIS2_PLACEMENT_3D ( 'NONE', #313, #159, #339 ) ;
#275 = ORIENTED_EDGE ( 'NONE', *, *, #247, .T. ) ;
#276 = VERTEX_POINT ( 'NONE', #288 ) ;
#277 = LINE ( 'NONE', #298, #229 ) ;
#278 = DIRECTION ( 'NONE',  ( 0.000000000000000000, -0.7071067811865485719, -0.7071067811865464625 ) ) ;
#279 = VECTOR ( 'NONE', #378, 39.37007874015748143 ) ;
#280 = CARTESIAN_POINT ( 'NONE',  ( 2.000000000000000000, 0.6499999999999994671, 0.000000000000000000 ) ) ;
#281 = EDGE_CURVE ( 'NONE', #365, #263, #292, .T. ) ;
#282 = CARTESIAN_POINT ( 'NONE',  ( 1.250000000000000000, 0.1250000000000000555, 0.000000000000000000 ) ) ;
#283 = DIRECTION ( 'NONE',  ( 2.185478394931410575E-15, -1.000000000000000000, 0.000000000000000000 ) ) ;
#284 = APPROVAL_ROLE ( '' ) ;
#285 = CARTESIAN_POINT ( 'NONE',  ( 0.000000000000000000, 0.000000000000000000, 0.1199999999999999956 ) ) ;
#286 = EDGE_CURVE ( 'NONE', #263, #326, #255, .T. ) ;
#287 = CALENDAR_DATE ( 2022, 27, 4 ) ;
#288 = CARTESIAN_POINT ( 'NONE',  ( 2.000000000000000000, 0.000000000000000000, 0.1199999999999999956 ) ) ;
#289 = APPROVAL_DATE_TIME ( #256, #341 ) ;
#290 = CARTESIAN_POINT ( 'NONE',  ( 0.000000000000000000, 0.7099999999999999645, 0.05999999999999987288 ) ) ;
#291 = APPLICATION_PROTOCOL_DEFINITION ( 'international standard', 'config_control_design', 1994, #128 ) ;
#292 = LINE ( 'NONE', #9, #187 ) ;
#293 = DIRECTION ( 'NONE',  ( 0.000000000000000000, 1.000000000000000000, 0.000000000000000000 ) ) ;
#294 = DIRECTION ( 'NONE',  ( 0.000000000000000000, 0.000000000000000000, -1.000000000000000000 ) ) ;
#295 = CLOSED_SHELL ( 'NONE', ( #202, #354, #370, #135, #239, #234, #24, #54, #324, #254, #33 ) ) ;
#296 = APPLICATION_PROTOCOL_DEFINITION ( 'international standard', 'config_control_design', 1994, #377 ) ;
#297 = ORIENTED_EDGE ( 'NONE', *, *, #396, .T. ) ;
#298 = CARTESIAN_POINT ( 'NONE',  ( 2.000000000000000000, 0.7099999999999996314, 0.05999999999999999778 ) ) ;
#299 = ORIENTED_EDGE ( 'NONE', *, *, #108, .F. ) ;
#300 = ORIENTED_EDGE ( 'NONE', *, *, #400, .F. ) ;
#301 = VECTOR ( 'NONE', #315, 39.37007874015748143 ) ;
#302 = CC_DESIGN_SECURITY_CLASSIFICATION ( #250, ( #167 ) ) ;
#303 = PRODUCT_RELATED_PRODUCT_CATEGORY ( 'detail', '', ( #387 ) ) ;
#304 = ORIENTED_EDGE ( 'NONE', *, *, #78, .T. ) ;
#305 = EDGE_LOOP ( 'NONE', ( #144, #351, #204, #174, #245, #17, #146, #116 ) ) ;
#306 = LINE ( 'NONE', #394, #4 ) ;
#307 = FACE_OUTER_BOUND ( 'NONE', #81, .T. ) ;
#308 = AXIS2_PLACEMENT_3D ( 'NONE', #82, #182, #361 ) ;
#309 = ADVANCED_BREP_SHAPE_REPRESENTATION ( 'J400', ( #80, #375 ), #11 ) ;
#310 = LINE ( 'NONE', #27, #279 ) ;
#311 = DIRECTION ( 'NONE',  ( 0.000000000000000000, 0.7071067811865464625, -0.7071067811865486830 ) ) ;
#312 = CALENDAR_DATE ( 2022, 27, 4 ) ;
#313 = CARTESIAN_POINT ( 'NONE',  ( 1.000000000000000000, 0.1250000000000000278, 0.1199999999999999956 ) ) ;
#314 = AXIS2_PLACEMENT_3D ( 'NONE', #372, #311, #253 ) ;
#315 = DIRECTION ( 'NONE',  ( 0.000000000000000000, 1.000000000000000000, 0.000000000000000000 ) ) ;
#316 = EDGE_CURVE ( 'NONE', #59, #395, #133, .T. ) ;
#317 = PERSON_AND_ORGANIZATION ( #211, #368 ) ;
#318 = LINE ( 'NONE', #228, #87 ) ;
#319 = CARTESIAN_POINT ( 'NONE',  ( 0.000000000000000000, 0.000000000000000000, 0.1199999999999999956 ) ) ;
#320 = EDGE_CURVE ( 'NONE', #397, #395, #41, .T. ) ;
#321 = DIRECTION ( 'NONE',  ( 1.000000000000000000, 0.000000000000000000, 0.000000000000000000 ) ) ;
#322 = ORIENTED_EDGE ( 'NONE', *, *, #221, .F. ) ;
#323 = DIRECTION ( 'NONE',  ( 2.185478394931410575E-15, -1.000000000000000000, 0.000000000000000000 ) ) ;
#324 = ADVANCED_FACE ( 'NONE', ( #136 ), #386, .F. ) ;
#325 = CARTESIAN_POINT ( 'NONE',  ( 0.7500000000000001110, 0.000000000000000000, 0.000000000000000000 ) ) ;
#326 = VERTEX_POINT ( 'NONE', #328 ) ;
#327 = AXIS2_PLACEMENT_3D ( 'NONE', #266, #293, #111 ) ;
#328 = CARTESIAN_POINT ( 'NONE',  ( 2.000000000000000000, 0.000000000000000000, 0.000000000000000000 ) ) ;
#329 = LOCAL_TIME ( 10, 25, 11.00000000000000000, #63 ) ;
#330 = ORIENTED_EDGE ( 'NONE', *, *, #358, .F. ) ;
#331 = PLANE ( 'NONE',  #349 ) ;
#332 = EDGE_LOOP ( 'NONE', ( #406, #119, #193, #236 ) ) ;
#333 = ORIENTED_EDGE ( 'NONE', *, *, #8, .T. ) ;
#334 = VERTEX_POINT ( 'NONE', #325 ) ;
#335 = CIRCLE ( 'NONE', #220, 0.2500000000000000555 ) ;
#336 = EDGE_LOOP ( 'NONE', ( #299, #77, #2, #362 ) ) ;
#337 = CARTESIAN_POINT ( 'NONE',  ( 0.7500000000000002220, 0.000000000000000000, 0.1199999999999999956 ) ) ;
#338 = EDGE_CURVE ( 'NONE', #205, #233, #401, .T. ) ;
#339 = DIRECTION ( 'NONE',  ( 1.000000000000000000, 0.000000000000000000, 0.000000000000000000 ) ) ;
#340 = CARTESIAN_POINT ( 'NONE',  ( 0.000000000000000000, 0.000000000000000000, 0.1199999999999999956 ) ) ;
#341 = APPROVAL ( #94, 'UNSPECIFIED' ) ;
#342 = DATE_AND_TIME ( #312, #242 ) ;
#343 = PLANE ( 'NONE',  #158 ) ;
#344 = DIRECTION ( 'NONE',  ( -0.000000000000000000, -0.000000000000000000, -1.000000000000000000 ) ) ;
#345 = DATE_AND_TIME ( #186, #213 ) ;
#346 = DIRECTION ( 'NONE',  ( 0.000000000000000000, -0.7071067811865436870, 0.7071067811865512365 ) ) ;
#347 = VECTOR ( 'NONE', #75, 39.37007874015748143 ) ;
#348 = PERSON_AND_ORGANIZATION_ROLE ( 'design_supplier' ) ;
#349 = AXIS2_PLACEMENT_3D ( 'NONE', #268, #58, #151 ) ;
#350 = DIRECTION ( 'NONE',  ( 1.000000000000000000, 0.000000000000000000, 0.000000000000000000 ) ) ;
#351 = ORIENTED_EDGE ( 'NONE', *, *, #62, .T. ) ;
#352 = PERSON_AND_ORGANIZATION ( #211, #368 ) ;
#353 = LINE ( 'NONE', #390, #301 ) ;
#354 = ADVANCED_FACE ( 'NONE', ( #49 ), #331, .T. ) ;
#355 = LINE ( 'NONE', #319, #36 ) ;
#356 = CARTESIAN_POINT ( 'NONE',  ( 0.7499999999999998890, 0.1250000000000000000, 0.000000000000000000 ) ) ;
#357 = VERTEX_POINT ( 'NONE', #337 ) ;
#358 = EDGE_CURVE ( 'NONE', #85, #205, #277, .T. ) ;
#359 = DIRECTION ( 'NONE',  ( 0.000000000000000000, -1.000000000000000000, 0.000000000000000000 ) ) ;
#360 = EDGE_LOOP ( 'NONE', ( #391, #367, #199, #19 ) ) ;
#361 = DIRECTION ( 'NONE',  ( 0.000000000000000000, -0.000000000000000000, 1.000000000000000000 ) ) ;
#362 = ORIENTED_EDGE ( 'NONE', *, *, #169, .F. ) ;
#363 = ORIENTED_EDGE ( 'NONE', *, *, #97, .F. ) ;
#364 = ORIENTED_EDGE ( 'NONE', *, *, #358, .T. ) ;
#365 = VERTEX_POINT ( 'NONE', #232 ) ;
#366 = AXIS2_PLACEMENT_3D ( 'NONE', #162, #388, #385 ) ;
#367 = ORIENTED_EDGE ( 'NONE', *, *, #396, .F. ) ;
#368 = ORGANIZATION ( 'UNSPECIFIED', 'UNSPECIFIED', '' ) ;
#369 = DIRECTION ( 'NONE',  ( 0.000000000000000000, -0.7071067811865436870, 0.7071067811865512365 ) ) ;
#370 = ADVANCED_FACE ( 'NONE', ( #175 ), #173, .F. ) ;
#371 = CARTESIAN_POINT ( 'NONE',  ( 1.000000000000000000, 0.1250000000000000278, 0.000000000000000000 ) ) ;
#372 = CARTESIAN_POINT ( 'NONE',  ( 2.000000000000000000, 0.7099999999999996314, 0.05999999999999999778 ) ) ;
#373 = CARTESIAN_POINT ( 'NONE',  ( 0.000000000000000000, 0.000000000000000000, 0.000000000000000000 ) ) ;
#374 = DIRECTION ( 'NONE',  ( 1.000000000000000000, 0.000000000000000000, 0.000000000000000000 ) ) ;
#375 = AXIS2_PLACEMENT_3D ( 'NONE', #373, #197, #45 ) ;
#376 = SECURITY_CLASSIFICATION_LEVEL ( 'unclassified' ) ;
#377 = APPLICATION_CONTEXT ( 'configuration controlled 3d designs of mechanical parts and assemblies' ) ;
#378 = DIRECTION ( 'NONE',  ( 0.000000000000000000, -0.7071067811865486830, -0.7071067811865464625 ) ) ;
#379 = CALENDAR_DATE ( 2022, 27, 4 ) ;
#380 = LINE ( 'NONE', #64, #241 ) ;
#381 = DATE_TIME_ROLE ( 'classification_date' ) ;
#382 = CARTESIAN_POINT ( 'NONE',  ( 1.250000000000000000, 0.1250000000000000555, 0.1199999999999999956 ) ) ;
#383 = DESIGN_CONTEXT ( 'detailed design', #128, 'design' ) ;
#384 = VECTOR ( 'NONE', #344, 39.37007874015748143 ) ;
#385 = DIRECTION ( 'NONE',  ( 0.000000000000000000, 0.7071067811865436870, -0.7071067811865512365 ) ) ;
#386 = PLANE ( 'NONE',  #402 ) ;
#387 = PRODUCT ( 'J400', 'J400', '', ( #60 ) ) ;
#388 = DIRECTION ( 'NONE',  ( 0.000000000000000000, -0.7071067811865513475, -0.7071067811865437980 ) ) ;
#389 = EDGE_CURVE ( 'NONE', #85, #201, #306, .T. ) ;
#390 = CARTESIAN_POINT ( 'NONE',  ( 0.000000000000000000, 0.000000000000000000, 0.1199999999999999956 ) ) ;
#391 = ORIENTED_EDGE ( 'NONE', *, *, #150, .F. ) ;
#392 = CC_DESIGN_PERSON_AND_ORGANIZATION_ASSIGNMENT ( #132, #217, ( #250 ) ) ;
#393 = EDGE_LOOP ( 'NONE', ( #56, #398, #179, #330 ) ) ;
#394 = CARTESIAN_POINT ( 'NONE',  ( 2.000000000000000000, 0.7099999999999996314, 0.05999999999999999778 ) ) ;
#395 = VERTEX_POINT ( 'NONE', #79 ) ;
#396 = EDGE_CURVE ( 'NONE', #365, #273, #404, .T. ) ;
#397 = VERTEX_POINT ( 'NONE', #28 ) ;
#398 = ORIENTED_EDGE ( 'NONE', *, *, #92, .T. ) ;
#399 = ORIENTED_EDGE ( 'NONE', *, *, #177, .F. ) ;
#400 = EDGE_CURVE ( 'NONE', #205, #276, #26, .T. ) ;
#401 = LINE ( 'NONE', #180, #47 ) ;
#402 = AXIS2_PLACEMENT_3D ( 'NONE', #356, #194, #323 ) ;
#403 = CARTESIAN_POINT ( 'NONE',  ( 1.000000000000000000, 0.1250000000000000278, 0.000000000000000000 ) ) ;
#404 = LINE ( 'NONE', #126, #48 ) ;
#405 = EDGE_CURVE ( 'NONE', #89, #357, #90, .T. ) ;
#406 = ORIENTED_EDGE ( 'NONE', *, *, #8, .F. ) ;
#407 = DIRECTION ( 'NONE',  ( -1.000000000000000000, 0.000000000000000000, -0.000000000000000000 ) ) ;
ENDSEC;
END-ISO-10303-21;
