ISO-10303-21;
HEADER;
FILE_DESCRIPTION (( 'STEP AP203' ),
    '1' );
FILE_NAME ('J397.STEP',
    '2022-04-27T15:24:23',
    ( '' ),
    ( '' ),
    'SwSTEP 2.0',
    'SolidWorks 2020',
    '' );
FILE_SCHEMA (( 'CONFIG_CONTROL_DESIGN' ));
ENDSEC;

DATA;
#1 = EDGE_CURVE ( 'NONE', #113, #69, #274, .T. ) ;
#2 = CARTESIAN_POINT ( 'NONE',  ( 0.000000000000000000, 0.000000000000000000, 0.000000000000000000 ) ) ;
#3 = CARTESIAN_POINT ( 'NONE',  ( 1.249999999999998890, 0.000000000000000000, 0.1239999999999999991 ) ) ;
#4 = PERSON_AND_ORGANIZATION_ROLE ( 'design_owner' ) ;
#5 = ORIENTED_EDGE ( 'NONE', *, *, #27, .F. ) ;
#6 = CARTESIAN_POINT ( 'NONE',  ( 1.000000000000000000, 0.1250000000000000278, 0.1239999999999999991 ) ) ;
#7 = ORIENTED_EDGE ( 'NONE', *, *, #337, .T. ) ;
#8 = APPROVAL ( #211, 'UNSPECIFIED' ) ;
#9 = ORIENTED_EDGE ( 'NONE', *, *, #1, .F. ) ;
#10 = PLANE ( 'NONE',  #346 ) ;
#11 = ORIENTED_EDGE ( 'NONE', *, *, #403, .F. ) ;
#12 = PLANE ( 'NONE',  #58 ) ;
#13 = ORIENTED_EDGE ( 'NONE', *, *, #219, .T. ) ;
#14 = CALENDAR_DATE ( 2022, 27, 4 ) ;
#15 = CARTESIAN_POINT ( 'NONE',  ( 0.7499999999999998890, 0.1250000000000000555, 0.1239999999999999991 ) ) ;
#16 = AXIS2_PLACEMENT_3D ( 'NONE', #222, #35, #372 ) ;
#17 = LOCAL_TIME ( 10, 24, 23.00000000000000000, #84 ) ;
#18 = CARTESIAN_POINT ( 'NONE',  ( 2.000000000000000000, 0.000000000000000000, 0.000000000000000000 ) ) ;
#19 = ADVANCED_FACE ( 'NONE', ( #188 ), #247, .T. ) ;
#20 = DIRECTION ( 'NONE',  ( 0.000000000000000000, -0.7071067811865431318, 0.7071067811865516806 ) ) ;
#21 = PERSON_AND_ORGANIZATION ( #124, #388 ) ;
#22 = LINE ( 'NONE', #155, #213 ) ;
#23 = APPLICATION_CONTEXT ( 'configuration controlled 3d designs of mechanical parts and assemblies' ) ;
#24 = DATE_AND_TIME ( #182, #204 ) ;
#25 = CC_DESIGN_APPROVAL ( #8, ( #33 ) ) ;
#26 = VERTEX_POINT ( 'NONE', #248 ) ;
#27 = EDGE_CURVE ( 'NONE', #104, #135, #246, .T. ) ;
#28 = LINE ( 'NONE', #3, #319 ) ;
#29 = DIRECTION ( 'NONE',  ( 0.000000000000000000, -1.000000000000000000, 0.000000000000000000 ) ) ;
#30 = VECTOR ( 'NONE', #256, 39.37007874015748143 ) ;
#31 = AXIS2_PLACEMENT_3D ( 'NONE', #130, #405, #60 ) ;
#32 = CARTESIAN_POINT ( 'NONE',  ( 1.249999999999998890, 0.000000000000000000, 0.000000000000000000 ) ) ;
#33 = PRODUCT_DEFINITION_FORMATION_WITH_SPECIFIED_SOURCE ( 'ANY', '', #109, .NOT_KNOWN. ) ;
#34 = DIRECTION ( 'NONE',  ( -1.000000000000000000, 0.000000000000000000, 0.000000000000000000 ) ) ;
#35 = DIRECTION ( 'NONE',  ( 0.000000000000000000, 0.7071067811865511255, -0.7071067811865439090 ) ) ;
#36 = ORIENTED_EDGE ( 'NONE', *, *, #90, .F. ) ;
#37 = VECTOR ( 'NONE', #339, 39.37007874015748143 ) ;
#38 =( GEOMETRIC_REPRESENTATION_CONTEXT ( 3 ) GLOBAL_UNCERTAINTY_ASSIGNED_CONTEXT ( ( #370 ) ) GLOBAL_UNIT_ASSIGNED_CONTEXT ( ( #294, #172, #140 ) ) REPRESENTATION_CONTEXT ( 'NONE', 'WORKASPACE' ) );
#39 = ORIENTED_EDGE ( 'NONE', *, *, #325, .T. ) ;
#40 = ORIENTED_EDGE ( 'NONE', *, *, #348, .T. ) ;
#41 = LINE ( 'NONE', #235, #218 ) ;
#42 = EDGE_LOOP ( 'NONE', ( #260, #226, #147, #138, #236, #79, #283, #398 ) ) ;
#43 = AXIS2_PLACEMENT_3D ( 'NONE', #317, #129, #93 ) ;
#44 = VECTOR ( 'NONE', #110, 39.37007874015748143 ) ;
#45 = EDGE_CURVE ( 'NONE', #104, #350, #82, .T. ) ;
#46 = ORIENTED_EDGE ( 'NONE', *, *, #323, .F. ) ;
#47 = PRODUCT_RELATED_PRODUCT_CATEGORY ( 'detail', '', ( #109 ) ) ;
#48 = APPROVAL_STATUS ( 'not_yet_approved' ) ;
#49 = DIRECTION ( 'NONE',  ( 2.185478394931409391E-15, -1.000000000000000000, 0.000000000000000000 ) ) ;
#50 = APPROVAL_STATUS ( 'not_yet_approved' ) ;
#51 = DIRECTION ( 'NONE',  ( 0.000000000000000000, 0.000000000000000000, -1.000000000000000000 ) ) ;
#52 = PERSON_AND_ORGANIZATION_ROLE ( 'classification_officer' ) ;
#53 = DIRECTION ( 'NONE',  ( 0.000000000000000000, 0.000000000000000000, -1.000000000000000000 ) ) ;
#54 = APPROVAL_DATE_TIME ( #187, #8 ) ;
#55 = LINE ( 'NONE', #338, #378 ) ;
#56 = DIRECTION ( 'NONE',  ( 0.000000000000000000, -0.7071067811865439090, -0.7071067811865511255 ) ) ;
#57 = EDGE_CURVE ( 'NONE', #356, #309, #89, .T. ) ;
#58 = AXIS2_PLACEMENT_3D ( 'NONE', #169, #107, #229 ) ;
#59 = PLANE ( 'NONE',  #263 ) ;
#60 = DIRECTION ( 'NONE',  ( -1.000000000000000000, 0.000000000000000000, 0.000000000000000000 ) ) ;
#61 = CARTESIAN_POINT ( 'NONE',  ( 0.7499999999999998890, 0.1250000000000000555, 0.1239999999999999991 ) ) ;
#62 = VECTOR ( 'NONE', #20, 39.37007874015748854 ) ;
#63 = LINE ( 'NONE', #194, #304 ) ;
#64 = VERTEX_POINT ( 'NONE', #180 ) ;
#65 = LINE ( 'NONE', #311, #156 ) ;
#66 = MECHANICAL_CONTEXT ( 'NONE', #327, 'mechanical' ) ;
#67 = DIRECTION ( 'NONE',  ( -0.000000000000000000, 0.000000000000000000, -1.000000000000000000 ) ) ;
#68 = VECTOR ( 'NONE', #29, 39.37007874015748143 ) ;
#69 = VERTEX_POINT ( 'NONE', #183 ) ;
#70 = CC_DESIGN_PERSON_AND_ORGANIZATION_ASSIGNMENT ( #331, #88, ( #136 ) ) ;
#71 = CARTESIAN_POINT ( 'NONE',  ( 0.000000000000000000, 0.000000000000000000, 0.000000000000000000 ) ) ;
#72 = ORIENTED_EDGE ( 'NONE', *, *, #95, .T. ) ;
#73 =( LENGTH_UNIT ( ) NAMED_UNIT ( * ) SI_UNIT ( $, .METRE. ) );
#74 = ORIENTED_EDGE ( 'NONE', *, *, #57, .T. ) ;
#75 = ADVANCED_FACE ( 'NONE', ( #305 ), #359, .F. ) ;
#76 = CARTESIAN_POINT ( 'NONE',  ( 2.000000000000000000, 0.5130000000000008997, 0.1239999999999999991 ) ) ;
#77 = VERTEX_POINT ( 'NONE', #18 ) ;
#78 = ADVANCED_BREP_SHAPE_REPRESENTATION ( 'J397', ( #228, #379 ), #38 ) ;
#79 = ORIENTED_EDGE ( 'NONE', *, *, #348, .F. ) ;
#80 = ADVANCED_FACE ( 'NONE', ( #336 ), #214, .F. ) ;
#81 = CALENDAR_DATE ( 2022, 27, 4 ) ;
#82 = LINE ( 'NONE', #390, #161 ) ;
#83 = ADVANCED_FACE ( 'NONE', ( #400 ), #85, .T. ) ;
#84 = COORDINATED_UNIVERSAL_TIME_OFFSET ( 6, 0, .BEHIND. ) ;
#85 = PLANE ( 'NONE',  #166 ) ;
#86 = DATE_TIME_ROLE ( 'creation_date' ) ;
#87 = CARTESIAN_POINT ( 'NONE',  ( 0.000000000000000000, 0.000000000000000000, 0.000000000000000000 ) ) ;
#88 = PERSON_AND_ORGANIZATION_ROLE ( 'creator' ) ;
#89 = LINE ( 'NONE', #116, #313 ) ;
#90 = EDGE_CURVE ( 'NONE', #173, #98, #306, .T. ) ;
#91 = CARTESIAN_POINT ( 'NONE',  ( 0.7500000000000002220, 1.639108796198557537E-15, 0.000000000000000000 ) ) ;
#92 = VECTOR ( 'NONE', #49, 39.37007874015748143 ) ;
#93 = DIRECTION ( 'NONE',  ( 0.000000000000000000, -0.000000000000000000, 1.000000000000000000 ) ) ;
#94 = ORIENTED_EDGE ( 'NONE', *, *, #323, .T. ) ;
#95 = EDGE_CURVE ( 'NONE', #202, #77, #216, .T. ) ;
#96 = PLANE ( 'NONE',  #16 ) ;
#97 = PLANE ( 'NONE',  #224 ) ;
#98 = VERTEX_POINT ( 'NONE', #363 ) ;
#99 = VECTOR ( 'NONE', #257, 39.37007874015748143 ) ;
#100 = FACE_OUTER_BOUND ( 'NONE', #402, .T. ) ;
#101 = DIRECTION ( 'NONE',  ( 2.185478394931409391E-15, -1.000000000000000000, 0.000000000000000000 ) ) ;
#102 = EDGE_CURVE ( 'NONE', #26, #321, #55, .T. ) ;
#103 = DIRECTION ( 'NONE',  ( 1.000000000000000000, 0.000000000000000000, 0.000000000000000000 ) ) ;
#104 = VERTEX_POINT ( 'NONE', #186 ) ;
#105 = DIRECTION ( 'NONE',  ( 1.000000000000000000, 0.000000000000000000, -0.000000000000000000 ) ) ;
#106 = ORIENTED_EDGE ( 'NONE', *, *, #184, .F. ) ;
#107 = DIRECTION ( 'NONE',  ( 1.000000000000000000, 2.185478394931409391E-15, 0.000000000000000000 ) ) ;
#108 = ORIENTED_EDGE ( 'NONE', *, *, #250, .F. ) ;
#109 = PRODUCT ( 'J397', 'J397', '', ( #66 ) ) ;
#110 = DIRECTION ( 'NONE',  ( 0.000000000000000000, 1.000000000000000000, 0.000000000000000000 ) ) ;
#111 = CC_DESIGN_DATE_AND_TIME_ASSIGNMENT ( #245, #86, ( #136 ) ) ;
#112 = ORIENTED_EDGE ( 'NONE', *, *, #292, .F. ) ;
#113 = VERTEX_POINT ( 'NONE', #307 ) ;
#114 = AXIS2_PLACEMENT_3D ( 'NONE', #276, #51, #217 ) ;
#115 = CC_DESIGN_SECURITY_CLASSIFICATION ( #397, ( #33 ) ) ;
#116 = CARTESIAN_POINT ( 'NONE',  ( 1.250000000000000000, 0.1250000000000000000, 0.1239999999999999991 ) ) ;
#117 = APPROVAL_ROLE ( '' ) ;
#118 = CARTESIAN_POINT ( 'NONE',  ( 2.000000000000000000, 0.5750000000000001776, 0.06199999999999999262 ) ) ;
#119 = DIRECTION ( 'NONE',  ( 1.000000000000000000, -8.741913579725640721E-15, 0.000000000000000000 ) ) ;
#120 = APPROVAL_PERSON_ORGANIZATION ( #207, #160, #117 ) ;
#121 = APPROVAL_ROLE ( '' ) ;
#122 = EDGE_CURVE ( 'NONE', #243, #375, #367, .T. ) ;
#123 = ORIENTED_EDGE ( 'NONE', *, *, #244, .F. ) ;
#124 = PERSON ( 'UNSPECIFIED', 'UNSPECIFIED', 'UNSPECIFIED', ('UNSPECIFIED'), ('UNSPECIFIED'), ('UNSPECIFIED') ) ;
#125 = DIRECTION ( 'NONE',  ( 1.000000000000000000, 0.000000000000000000, 0.000000000000000000 ) ) ;
#126 = CC_DESIGN_DATE_AND_TIME_ASSIGNMENT ( #271, #389, ( #397 ) ) ;
#127 = PLANE ( 'NONE',  #43 ) ;
#128 = ORIENTED_EDGE ( 'NONE', *, *, #206, .T. ) ;
#129 = DIRECTION ( 'NONE',  ( 0.000000000000000000, 1.000000000000000000, 0.000000000000000000 ) ) ;
#130 = CARTESIAN_POINT ( 'NONE',  ( 1.000000000000000000, 0.1250000000000000278, 0.1239999999999999991 ) ) ;
#131 = DIRECTION ( 'NONE',  ( 0.000000000000000000, -0.000000000000000000, 1.000000000000000000 ) ) ;
#132 = CARTESIAN_POINT ( 'NONE',  ( 1.250000000000000000, 0.1250000000000000000, 0.1239999999999999991 ) ) ;
#133 = EDGE_CURVE ( 'NONE', #321, #350, #22, .T. ) ;
#134 = APPLICATION_PROTOCOL_DEFINITION ( 'international standard', 'config_control_design', 1994, #23 ) ;
#135 = VERTEX_POINT ( 'NONE', #179 ) ;
#136 = PRODUCT_DEFINITION ( 'UNKNOWN', '', #33, #399 ) ;
#137 = DIRECTION ( 'NONE',  ( -1.000000000000000000, 0.000000000000000000, 0.000000000000000000 ) ) ;
#138 = ORIENTED_EDGE ( 'NONE', *, *, #90, .T. ) ;
#139 = EDGE_CURVE ( 'NONE', #296, #98, #302, .T. ) ;
#140 =( NAMED_UNIT ( * ) SI_UNIT ( $, .STERADIAN. ) SOLID_ANGLE_UNIT ( ) );
#141 = AXIS2_PLACEMENT_3D ( 'NONE', #312, #196, #34 ) ;
#142 = CC_DESIGN_APPROVAL ( #406, ( #397 ) ) ;
#143 = EDGE_LOOP ( 'NONE', ( #381, #201, #199, #230, #353 ) ) ;
#144 = LINE ( 'NONE', #71, #44 ) ;
#145 = ORIENTED_EDGE ( 'NONE', *, *, #206, .F. ) ;
#146 = DIRECTION ( 'NONE',  ( -0.000000000000000000, -0.000000000000000000, -1.000000000000000000 ) ) ;
#147 = ORIENTED_EDGE ( 'NONE', *, *, #325, .F. ) ;
#148 = ORIENTED_EDGE ( 'NONE', *, *, #386, .T. ) ;
#149 = ADVANCED_FACE ( 'NONE', ( #368 ), #96, .T. ) ;
#150 = CARTESIAN_POINT ( 'NONE',  ( 0.000000000000000000, 0.000000000000000000, 0.1239999999999999991 ) ) ;
#151 = CC_DESIGN_PERSON_AND_ORGANIZATION_ASSIGNMENT ( #291, #4, ( #109 ) ) ;
#152 = SECURITY_CLASSIFICATION_LEVEL ( 'unclassified' ) ;
#153 = CARTESIAN_POINT ( 'NONE',  ( 0.000000000000000000, 0.000000000000000000, 0.1239999999999999991 ) ) ;
#154 = EDGE_CURVE ( 'NONE', #321, #77, #401, .T. ) ;
#155 = CARTESIAN_POINT ( 'NONE',  ( 2.000000000000000000, 0.5130000000000007887, -8.537024980200822558E-18 ) ) ;
#156 = VECTOR ( 'NONE', #289, 39.37007874015748854 ) ;
#157 = DIRECTION ( 'NONE',  ( 0.000000000000000000, -0.7071067811865439090, -0.7071067811865511255 ) ) ;
#158 = CARTESIAN_POINT ( 'NONE',  ( 0.7499999999999998890, 0.1250000000000000555, 0.1239999999999999991 ) ) ;
#159 = CARTESIAN_POINT ( 'NONE',  ( 0.000000000000000000, 0.000000000000000000, 0.1239999999999999991 ) ) ;
#160 = APPROVAL ( #48, 'UNSPECIFIED' ) ;
#161 = VECTOR ( 'NONE', #157, 39.37007874015748143 ) ;
#162 = CIRCLE ( 'NONE', #193, 0.2500000000000000555 ) ;
#163 = FACE_OUTER_BOUND ( 'NONE', #42, .T. ) ;
#164 = CARTESIAN_POINT ( 'NONE',  ( 2.000000000000000000, 0.5130000000000007887, 0.000000000000000000 ) ) ;
#165 = DIRECTION ( 'NONE',  ( -8.741913579725642299E-15, -1.000000000000000000, 0.000000000000000000 ) ) ;
#166 = AXIS2_PLACEMENT_3D ( 'NONE', #210, #212, #334 ) ;
#167 = ADVANCED_FACE ( 'NONE', ( #100 ), #97, .F. ) ;
#168 = EDGE_LOOP ( 'NONE', ( #5, #316, #332, #112, #39 ) ) ;
#169 = CARTESIAN_POINT ( 'NONE',  ( 0.7499999999999998890, 0.1250000000000000555, 0.1239999999999999991 ) ) ;
#170 = PRODUCT_DEFINITION_SHAPE ( 'NONE', 'NONE',  #136 ) ;
#171 = ORIENTED_EDGE ( 'NONE', *, *, #133, .F. ) ;
#172 =( NAMED_UNIT ( * ) PLANE_ANGLE_UNIT ( ) SI_UNIT ( $, .RADIAN. ) );
#173 = VERTEX_POINT ( 'NONE', #344 ) ;
#174 = EDGE_LOOP ( 'NONE', ( #328, #385, #240, #108 ) ) ;
#175 = DIRECTION ( 'NONE',  ( 0.000000000000000000, 0.000000000000000000, 1.000000000000000000 ) ) ;
#176 = ORIENTED_EDGE ( 'NONE', *, *, #122, .F. ) ;
#177 = ADVANCED_FACE ( 'NONE', ( #284 ), #127, .F. ) ;
#178 = PERSON_AND_ORGANIZATION ( #124, #388 ) ;
#179 = CARTESIAN_POINT ( 'NONE',  ( 0.000000000000000000, 0.5130000000000006777, 0.1239999999999999991 ) ) ;
#180 = CARTESIAN_POINT ( 'NONE',  ( 0.000000000000000000, 0.000000000000000000, 0.000000000000000000 ) ) ;
#181 = VECTOR ( 'NONE', #165, 39.37007874015748143 ) ;
#182 = CALENDAR_DATE ( 2022, 27, 4 ) ;
#183 = CARTESIAN_POINT ( 'NONE',  ( 2.000000000000000000, 0.000000000000000000, 0.1239999999999999991 ) ) ;
#184 = EDGE_CURVE ( 'NONE', #309, #243, #278, .T. ) ;
#185 = COORDINATED_UNIVERSAL_TIME_OFFSET ( 6, 0, .BEHIND. ) ;
#186 = CARTESIAN_POINT ( 'NONE',  ( 0.000000000000000000, 0.5749999999999999556, 0.06200000000000004813 ) ) ;
#187 = DATE_AND_TIME ( #329, #17 ) ;
#188 = FACE_OUTER_BOUND ( 'NONE', #298, .T. ) ;
#189 = DIRECTION ( 'NONE',  ( -1.000000000000000000, 0.000000000000000000, -0.000000000000000000 ) ) ;
#190 = LINE ( 'NONE', #369, #68 ) ;
#191 = CARTESIAN_POINT ( 'NONE',  ( 1.250000000000000000, 0.1250000000000000000, 0.000000000000000000 ) ) ;
#192 = VECTOR ( 'NONE', #351, 39.37007874015748143 ) ;
#193 = AXIS2_PLACEMENT_3D ( 'NONE', #6, #259, #103 ) ;
#194 = CARTESIAN_POINT ( 'NONE',  ( 2.000000000000000000, 0.5750000000000001776, 0.06199999999999999262 ) ) ;
#195 = EDGE_LOOP ( 'NONE', ( #9, #205, #72, #11 ) ) ;
#196 = DIRECTION ( 'NONE',  ( -0.000000000000000000, -0.000000000000000000, 1.000000000000000000 ) ) ;
#197 = CC_DESIGN_PERSON_AND_ORGANIZATION_ASSIGNMENT ( #333, #52, ( #397 ) ) ;
#198 = LINE ( 'NONE', #374, #404 ) ;
#199 = ORIENTED_EDGE ( 'NONE', *, *, #250, .T. ) ;
#200 = FACE_OUTER_BOUND ( 'NONE', #377, .T. ) ;
#201 = ORIENTED_EDGE ( 'NONE', *, *, #102, .F. ) ;
#202 = VERTEX_POINT ( 'NONE', #32 ) ;
#203 = FACE_OUTER_BOUND ( 'NONE', #143, .T. ) ;
#204 = LOCAL_TIME ( 10, 24, 23.00000000000000000, #185 ) ;
#205 = ORIENTED_EDGE ( 'NONE', *, *, #253, .T. ) ;
#206 = EDGE_CURVE ( 'NONE', #98, #375, #225, .T. ) ;
#207 = PERSON_AND_ORGANIZATION ( #124, #388 ) ;
#208 = ORIENTED_EDGE ( 'NONE', *, *, #320, .F. ) ;
#209 = COORDINATED_UNIVERSAL_TIME_OFFSET ( 6, 0, .BEHIND. ) ;
#210 = CARTESIAN_POINT ( 'NONE',  ( 0.000000000000000000, 0.000000000000000000, 0.1239999999999999991 ) ) ;
#211 = APPROVAL_STATUS ( 'not_yet_approved' ) ;
#212 = DIRECTION ( 'NONE',  ( -1.000000000000000000, 0.000000000000000000, 0.000000000000000000 ) ) ;
#213 = VECTOR ( 'NONE', #279, 39.37007874015748143 ) ;
#214 = PLANE ( 'NONE',  #252 ) ;
#215 = COORDINATED_UNIVERSAL_TIME_OFFSET ( 6, 0, .BEHIND. ) ;
#216 = LINE ( 'NONE', #87, #326 ) ;
#217 = DIRECTION ( 'NONE',  ( -1.000000000000000000, 0.000000000000000000, -0.000000000000000000 ) ) ;
#218 = VECTOR ( 'NONE', #146, 39.37007874015748143 ) ;
#219 = EDGE_CURVE ( 'NONE', #296, #243, #254, .T. ) ;
#220 = CARTESIAN_POINT ( 'NONE',  ( 0.7499999999999998890, 0.1250000000000000555, 0.000000000000000000 ) ) ;
#221 = LINE ( 'NONE', #343, #30 ) ;
#222 = CARTESIAN_POINT ( 'NONE',  ( 2.000000000000000000, 0.5750000000000001776, 0.06199999999999999262 ) ) ;
#223 = ORIENTED_EDGE ( 'NONE', *, *, #57, .F. ) ;
#224 = AXIS2_PLACEMENT_3D ( 'NONE', #159, #258, #131 ) ;
#225 = LINE ( 'NONE', #251, #272 ) ;
#226 = ORIENTED_EDGE ( 'NONE', *, *, #340, .T. ) ;
#227 = LINE ( 'NONE', #380, #231 ) ;
#228 = MANIFOLD_SOLID_BREP ( 'BEVELS', #239 ) ;
#229 = DIRECTION ( 'NONE',  ( -2.185478394931409391E-15, 1.000000000000000000, 0.000000000000000000 ) ) ;
#230 = ORIENTED_EDGE ( 'NONE', *, *, #286, .T. ) ;
#231 = VECTOR ( 'NONE', #137, 39.37007874015748143 ) ;
#232 = LOCAL_TIME ( 10, 24, 23.00000000000000000, #215 ) ;
#233 = DIRECTION ( 'NONE',  ( 0.000000000000000000, 1.000000000000000000, 0.000000000000000000 ) ) ;
#234 = ORIENTED_EDGE ( 'NONE', *, *, #219, .F. ) ;
#235 = CARTESIAN_POINT ( 'NONE',  ( 2.000000000000000000, 0.000000000000000000, 0.1239999999999999991 ) ) ;
#236 = ORIENTED_EDGE ( 'NONE', *, *, #139, .F. ) ;
#237 = DIRECTION ( 'NONE',  ( 1.000000000000000000, 0.000000000000000000, 0.000000000000000000 ) ) ;
#238 = ORIENTED_EDGE ( 'NONE', *, *, #133, .T. ) ;
#239 = CLOSED_SHELL ( 'NONE', ( #80, #149, #83, #357, #167, #177, #255, #19, #393, #267, #75 ) ) ;
#240 = ORIENTED_EDGE ( 'NONE', *, *, #340, .F. ) ;
#241 = CC_DESIGN_PERSON_AND_ORGANIZATION_ASSIGNMENT ( #308, #364, ( #33 ) ) ;
#242 = PERSON_AND_ORGANIZATION ( #124, #388 ) ;
#243 = VERTEX_POINT ( 'NONE', #220 ) ;
#244 = EDGE_CURVE ( 'NONE', #356, #113, #347, .T. ) ;
#245 = DATE_AND_TIME ( #396, #280 ) ;
#246 = LINE ( 'NONE', #366, #62 ) ;
#247 = PLANE ( 'NONE',  #114 ) ;
#248 = CARTESIAN_POINT ( 'NONE',  ( 2.000000000000000000, 0.5750000000000001776, 0.06200000000000004813 ) ) ;
#249 = DIRECTION ( 'NONE',  ( 1.000000000000000000, 0.000000000000000000, 0.000000000000000000 ) ) ;
#250 = EDGE_CURVE ( 'NONE', #26, #352, #65, .T. ) ;
#251 = CARTESIAN_POINT ( 'NONE',  ( 0.7500000000000002220, 0.000000000000000000, 0.1239999999999999991 ) ) ;
#252 = AXIS2_PLACEMENT_3D ( 'NONE', #118, #394, #361 ) ;
#253 = EDGE_CURVE ( 'NONE', #113, #202, #28, .T. ) ;
#254 = LINE ( 'NONE', #158, #99 ) ;
#255 = ADVANCED_FACE ( 'NONE', ( #163 ), #59, .F. ) ;
#256 = DIRECTION ( 'NONE',  ( -0.000000000000000000, -0.000000000000000000, -1.000000000000000000 ) ) ;
#257 = DIRECTION ( 'NONE',  ( 0.000000000000000000, 0.000000000000000000, -1.000000000000000000 ) ) ;
#258 = DIRECTION ( 'NONE',  ( 0.000000000000000000, 1.000000000000000000, 0.000000000000000000 ) ) ;
#259 = DIRECTION ( 'NONE',  ( 0.000000000000000000, 0.000000000000000000, 1.000000000000000000 ) ) ;
#260 = ORIENTED_EDGE ( 'NONE', *, *, #286, .F. ) ;
#261 = CARTESIAN_POINT ( 'NONE',  ( 0.000000000000000000, 0.5130000000000007887, -8.537024980200822558E-18 ) ) ;
#262 = ORIENTED_EDGE ( 'NONE', *, *, #102, .T. ) ;
#263 = AXIS2_PLACEMENT_3D ( 'NONE', #287, #407, #189 ) ;
#264 = APPROVAL_PERSON_ORGANIZATION ( #242, #8, #121 ) ;
#265 = CC_DESIGN_APPROVAL ( #160, ( #136 ) ) ;
#266 = ORIENTED_EDGE ( 'NONE', *, *, #337, .F. ) ;
#267 = ADVANCED_FACE ( 'NONE', ( #310 ), #341, .F. ) ;
#268 = ORIENTED_EDGE ( 'NONE', *, *, #292, .T. ) ;
#269 = DIRECTION ( 'NONE',  ( 1.000000000000000000, 0.000000000000000000, 0.000000000000000000 ) ) ;
#270 = ORIENTED_EDGE ( 'NONE', *, *, #253, .F. ) ;
#271 = DATE_AND_TIME ( #81, #273 ) ;
#272 = VECTOR ( 'NONE', #373, 39.37007874015748143 ) ;
#273 = LOCAL_TIME ( 10, 24, 23.00000000000000000, #209 ) ;
#274 = LINE ( 'NONE', #150, #395 ) ;
#275 = PERSON_AND_ORGANIZATION_ROLE ( 'creator' ) ;
#276 = CARTESIAN_POINT ( 'NONE',  ( 0.000000000000000000, 0.000000000000000000, 0.000000000000000000 ) ) ;
#277 = DIRECTION ( 'NONE',  ( 1.000000000000000000, 0.000000000000000000, 0.000000000000000000 ) ) ;
#278 = CIRCLE ( 'NONE', #141, 0.2500000000000000555 ) ;
#279 = DIRECTION ( 'NONE',  ( -1.000000000000000000, 0.000000000000000000, 0.000000000000000000 ) ) ;
#280 = LOCAL_TIME ( 10, 24, 23.00000000000000000, #303 ) ;
#281 = CARTESIAN_POINT ( 'NONE',  ( 1.250000000000000000, 0.1250000000000000000, 0.1239999999999999991 ) ) ;
#282 = DIRECTION ( 'NONE',  ( 0.000000000000000000, 0.000000000000000000, -1.000000000000000000 ) ) ;
#283 = ORIENTED_EDGE ( 'NONE', *, *, #244, .T. ) ;
#284 = FACE_OUTER_BOUND ( 'NONE', #195, .T. ) ;
#285 = AXIS2_PLACEMENT_3D ( 'NONE', #281, #119, #392 ) ;
#286 = EDGE_CURVE ( 'NONE', #352, #69, #190, .T. ) ;
#287 = CARTESIAN_POINT ( 'NONE',  ( 0.000000000000000000, 0.000000000000000000, 0.1239999999999999991 ) ) ;
#288 = LINE ( 'NONE', #2, #362 ) ;
#289 = DIRECTION ( 'NONE',  ( 0.000000000000000000, -0.7071067811865431318, 0.7071067811865516806 ) ) ;
#290 = EDGE_LOOP ( 'NONE', ( #330, #208, #262, #238 ) ) ;
#291 = PERSON_AND_ORGANIZATION ( #124, #388 ) ;
#292 = EDGE_CURVE ( 'NONE', #173, #64, #221, .T. ) ;
#293 = ORIENTED_EDGE ( 'NONE', *, *, #139, .T. ) ;
#294 =( CONVERSION_BASED_UNIT ( 'INCH', #349 ) LENGTH_UNIT ( ) NAMED_UNIT ( #365 ) );
#295 = EDGE_LOOP ( 'NONE', ( #106, #223, #40, #13 ) ) ;
#296 = VERTEX_POINT ( 'NONE', #61 ) ;
#297 = CARTESIAN_POINT ( 'NONE',  ( 1.249999999999998890, -1.092739197465704183E-14, 0.000000000000000000 ) ) ;
#298 = EDGE_LOOP ( 'NONE', ( #171, #322, #324, #266, #300, #383, #46, #148 ) ) ;
#299 = LINE ( 'NONE', #297, #192 ) ;
#300 = ORIENTED_EDGE ( 'NONE', *, *, #184, .T. ) ;
#301 = SHAPE_DEFINITION_REPRESENTATION ( #170, #78 ) ;
#302 = LINE ( 'NONE', #15, #345 ) ;
#303 = COORDINATED_UNIVERSAL_TIME_OFFSET ( 6, 0, .BEHIND. ) ;
#304 = VECTOR ( 'NONE', #315, 39.37007874015748143 ) ;
#305 = FACE_OUTER_BOUND ( 'NONE', #355, .T. ) ;
#306 = LINE ( 'NONE', #153, #387 ) ;
#307 = CARTESIAN_POINT ( 'NONE',  ( 1.249999999999998890, 0.000000000000000000, 0.1239999999999999991 ) ) ;
#308 = PERSON_AND_ORGANIZATION ( #124, #388 ) ;
#309 = VERTEX_POINT ( 'NONE', #191 ) ;
#310 = FACE_OUTER_BOUND ( 'NONE', #295, .T. ) ;
#311 = CARTESIAN_POINT ( 'NONE',  ( 2.000000000000000000, 0.5750000000000001776, 0.06199999999999999262 ) ) ;
#312 = CARTESIAN_POINT ( 'NONE',  ( 1.000000000000000000, 0.1250000000000000278, 0.000000000000000000 ) ) ;
#313 = VECTOR ( 'NONE', #53, 39.37007874015748143 ) ;
#314 = APPROVAL_PERSON_ORGANIZATION ( #178, #406, #358 ) ;
#315 = DIRECTION ( 'NONE',  ( -1.000000000000000000, 0.000000000000000000, 0.000000000000000000 ) ) ;
#316 = ORIENTED_EDGE ( 'NONE', *, *, #45, .T. ) ;
#317 = CARTESIAN_POINT ( 'NONE',  ( 0.000000000000000000, 0.000000000000000000, 0.1239999999999999991 ) ) ;
#318 = CARTESIAN_POINT ( 'NONE',  ( 0.7500000000000001110, 0.000000000000000000, 0.000000000000000000 ) ) ;
#319 = VECTOR ( 'NONE', #282, 39.37007874015748143 ) ;
#320 = EDGE_CURVE ( 'NONE', #26, #104, #63, .T. ) ;
#321 = VERTEX_POINT ( 'NONE', #164 ) ;
#322 = ORIENTED_EDGE ( 'NONE', *, *, #154, .T. ) ;
#323 = EDGE_CURVE ( 'NONE', #64, #375, #288, .T. ) ;
#324 = ORIENTED_EDGE ( 'NONE', *, *, #95, .F. ) ;
#325 = EDGE_CURVE ( 'NONE', #173, #135, #198, .T. ) ;
#326 = VECTOR ( 'NONE', #277, 39.37007874015748143 ) ;
#327 = APPLICATION_CONTEXT ( 'configuration controlled 3d designs of mechanical parts and assemblies' ) ;
#328 = ORIENTED_EDGE ( 'NONE', *, *, #320, .T. ) ;
#329 = CALENDAR_DATE ( 2022, 27, 4 ) ;
#330 = ORIENTED_EDGE ( 'NONE', *, *, #45, .F. ) ;
#331 = PERSON_AND_ORGANIZATION ( #124, #388 ) ;
#332 = ORIENTED_EDGE ( 'NONE', *, *, #386, .F. ) ;
#333 = PERSON_AND_ORGANIZATION ( #124, #388 ) ;
#334 = DIRECTION ( 'NONE',  ( 0.000000000000000000, 0.000000000000000000, 1.000000000000000000 ) ) ;
#335 = DATE_AND_TIME ( #14, #232 ) ;
#336 = FACE_OUTER_BOUND ( 'NONE', #174, .T. ) ;
#337 = EDGE_CURVE ( 'NONE', #309, #202, #299, .T. ) ;
#338 = CARTESIAN_POINT ( 'NONE',  ( 2.000000000000000000, 0.5750000000000001776, 0.06199999999999999262 ) ) ;
#339 = DIRECTION ( 'NONE',  ( 0.000000000000000000, -1.000000000000000000, 0.000000000000000000 ) ) ;
#340 = EDGE_CURVE ( 'NONE', #352, #135, #227, .T. ) ;
#341 = CYLINDRICAL_SURFACE ( 'NONE', #31, 0.2500000000000000555 ) ;
#342 = CC_DESIGN_PERSON_AND_ORGANIZATION_ASSIGNMENT ( #21, #275, ( #33 ) ) ;
#343 = CARTESIAN_POINT ( 'NONE',  ( 0.000000000000000000, 0.000000000000000000, 0.1239999999999999991 ) ) ;
#344 = CARTESIAN_POINT ( 'NONE',  ( 0.000000000000000000, 0.000000000000000000, 0.1239999999999999991 ) ) ;
#345 = VECTOR ( 'NONE', #101, 39.37007874015748143 ) ;
#346 = AXIS2_PLACEMENT_3D ( 'NONE', #354, #105, #67 ) ;
#347 = LINE ( 'NONE', #132, #181 ) ;
#348 = EDGE_CURVE ( 'NONE', #356, #296, #162, .T. ) ;
#349 = LENGTH_MEASURE_WITH_UNIT ( LENGTH_MEASURE( 0.02539999999999999897 ), #73 );
#350 = VERTEX_POINT ( 'NONE', #261 ) ;
#351 = DIRECTION ( 'NONE',  ( -8.741913579725640721E-15, -1.000000000000000000, 0.000000000000000000 ) ) ;
#352 = VERTEX_POINT ( 'NONE', #76 ) ;
#353 = ORIENTED_EDGE ( 'NONE', *, *, #403, .T. ) ;
#354 = CARTESIAN_POINT ( 'NONE',  ( 2.000000000000000000, 0.5750000000000001776, 0.1239999999999999991 ) ) ;
#355 = EDGE_LOOP ( 'NONE', ( #74, #7, #270, #123 ) ) ;
#356 = VERTEX_POINT ( 'NONE', #376 ) ;
#357 = ADVANCED_FACE ( 'NONE', ( #203 ), #10, .T. ) ;
#358 = APPROVAL_ROLE ( '' ) ;
#359 = PLANE ( 'NONE',  #285 ) ;
#360 = APPROVAL_DATE_TIME ( #335, #160 ) ;
#361 = DIRECTION ( 'NONE',  ( 0.000000000000000000, 0.7071067811865431318, -0.7071067811865516806 ) ) ;
#362 = VECTOR ( 'NONE', #237, 39.37007874015748143 ) ;
#363 = CARTESIAN_POINT ( 'NONE',  ( 0.7500000000000002220, 0.000000000000000000, 0.1239999999999999991 ) ) ;
#364 = PERSON_AND_ORGANIZATION_ROLE ( 'design_supplier' ) ;
#365 = DIMENSIONAL_EXPONENTS ( 1.000000000000000000, 0.000000000000000000, 0.000000000000000000, 0.000000000000000000, 0.000000000000000000, 0.000000000000000000, 0.000000000000000000 ) ;
#366 = CARTESIAN_POINT ( 'NONE',  ( 0.000000000000000000, 0.2565000000000035030, 0.3805000000000004490 ) ) ;
#367 = LINE ( 'NONE', #91, #92 ) ;
#368 = FACE_OUTER_BOUND ( 'NONE', #290, .T. ) ;
#369 = CARTESIAN_POINT ( 'NONE',  ( 2.000000000000000000, 0.5750000000000001776, 0.1239999999999999991 ) ) ;
#370 = UNCERTAINTY_MEASURE_WITH_UNIT (LENGTH_MEASURE( 1.000000000000000082E-05 ), #294, 'distance_accuracy_value', 'NONE');
#371 = CARTESIAN_POINT ( 'NONE',  ( 2.000000000000000000, 0.5750000000000001776, 0.000000000000000000 ) ) ;
#372 = DIRECTION ( 'NONE',  ( 0.000000000000000000, 0.7071067811865439090, 0.7071067811865511255 ) ) ;
#373 = DIRECTION ( 'NONE',  ( 0.000000000000000000, 0.000000000000000000, -1.000000000000000000 ) ) ;
#374 = CARTESIAN_POINT ( 'NONE',  ( 0.000000000000000000, 0.000000000000000000, 0.1239999999999999991 ) ) ;
#375 = VERTEX_POINT ( 'NONE', #318 ) ;
#376 = CARTESIAN_POINT ( 'NONE',  ( 1.250000000000000000, 0.1250000000000000000, 0.1239999999999999991 ) ) ;
#377 = EDGE_LOOP ( 'NONE', ( #176, #234, #293, #128 ) ) ;
#378 = VECTOR ( 'NONE', #56, 39.37007874015748143 ) ;
#379 = AXIS2_PLACEMENT_3D ( 'NONE', #382, #175, #269 ) ;
#380 = CARTESIAN_POINT ( 'NONE',  ( 2.000000000000000000, 0.5130000000000008997, 0.1240000000000000269 ) ) ;
#381 = ORIENTED_EDGE ( 'NONE', *, *, #154, .F. ) ;
#382 = CARTESIAN_POINT ( 'NONE',  ( 0.000000000000000000, 0.000000000000000000, 0.000000000000000000 ) ) ;
#383 = ORIENTED_EDGE ( 'NONE', *, *, #122, .T. ) ;
#384 = APPLICATION_PROTOCOL_DEFINITION ( 'international standard', 'config_control_design', 1994, #327 ) ;
#385 = ORIENTED_EDGE ( 'NONE', *, *, #27, .T. ) ;
#386 = EDGE_CURVE ( 'NONE', #64, #350, #144, .T. ) ;
#387 = VECTOR ( 'NONE', #249, 39.37007874015748143 ) ;
#388 = ORGANIZATION ( 'UNSPECIFIED', 'UNSPECIFIED', '' ) ;
#389 = DATE_TIME_ROLE ( 'classification_date' ) ;
#390 = CARTESIAN_POINT ( 'NONE',  ( 0.000000000000000000, 0.3185000000000029474, -0.1944999999999997564 ) ) ;
#391 = APPROVAL_DATE_TIME ( #24, #406 ) ;
#392 = DIRECTION ( 'NONE',  ( 8.741913579725640721E-15, 1.000000000000000000, 0.000000000000000000 ) ) ;
#393 = ADVANCED_FACE ( 'NONE', ( #200 ), #12, .T. ) ;
#394 = DIRECTION ( 'NONE',  ( 0.000000000000000000, -0.7071067811865517916, -0.7071067811865432429 ) ) ;
#395 = VECTOR ( 'NONE', #125, 39.37007874015748143 ) ;
#396 = CALENDAR_DATE ( 2022, 27, 4 ) ;
#397 = SECURITY_CLASSIFICATION ( '', '', #152 ) ;
#398 = ORIENTED_EDGE ( 'NONE', *, *, #1, .T. ) ;
#399 = DESIGN_CONTEXT ( 'detailed design', #23, 'design' ) ;
#400 = FACE_OUTER_BOUND ( 'NONE', #168, .T. ) ;
#401 = LINE ( 'NONE', #371, #37 ) ;
#402 = EDGE_LOOP ( 'NONE', ( #145, #36, #268, #94 ) ) ;
#403 = EDGE_CURVE ( 'NONE', #69, #77, #41, .T. ) ;
#404 = VECTOR ( 'NONE', #233, 39.37007874015748143 ) ;
#405 = DIRECTION ( 'NONE',  ( 0.000000000000000000, 0.000000000000000000, -1.000000000000000000 ) ) ;
#406 = APPROVAL ( #50, 'UNSPECIFIED' ) ;
#407 = DIRECTION ( 'NONE',  ( 0.000000000000000000, 0.000000000000000000, -1.000000000000000000 ) ) ;
ENDSEC;
END-ISO-10303-21;
