ISO-10303-21;
HEADER;
FILE_DESCRIPTION (( 'STEP AP203' ),
    '1' );
FILE_NAME ('J394.STEP',
    '2022-04-20T20:26:56',
    ( '' ),
    ( '' ),
    'SwSTEP 2.0',
    'SolidWorks 2020',
    '' );
FILE_SCHEMA (( 'CONFIG_CONTROL_DESIGN' ));
ENDSEC;

DATA;
#1 = DIRECTION ( 'NONE',  ( 0.000000000000000000, 1.000000000000000000, 0.000000000000000000 ) ) ;
#2 = ADVANCED_BREP_SHAPE_REPRESENTATION ( 'J394', ( #359, #279 ), #153 ) ;
#3 = ORIENTED_EDGE ( 'NONE', *, *, #386, .F. ) ;
#4 = CC_DESIGN_DATE_AND_TIME_ASSIGNMENT ( #16, #164, ( #312 ) ) ;
#5 = CARTESIAN_POINT ( 'NONE',  ( 0.000000000000000000, 0.000000000000000000, 0.1239999999999999991 ) ) ;
#6 = LOCAL_TIME ( 15, 26, 56.00000000000000000, #44 ) ;
#7 = ADVANCED_FACE ( 'NONE', ( #345 ), #184, .F. ) ;
#8 =( LENGTH_UNIT ( ) NAMED_UNIT ( * ) SI_UNIT ( $, .METRE. ) );
#9 = AXIS2_PLACEMENT_3D ( 'NONE', #121, #1, #225 ) ;
#10 = FACE_OUTER_BOUND ( 'NONE', #337, .T. ) ;
#11 = VECTOR ( 'NONE', #258, 39.37007874015748143 ) ;
#12 = PERSON_AND_ORGANIZATION ( #36, #123 ) ;
#13 = ORIENTED_EDGE ( 'NONE', *, *, #356, .T. ) ;
#14 = APPROVAL_STATUS ( 'not_yet_approved' ) ;
#15 = CARTESIAN_POINT ( 'NONE',  ( 0.7187500000000018874, 0.1812500000000000777, 0.000000000000000000 ) ) ;
#16 = DATE_AND_TIME ( #72, #6 ) ;
#17 = DIRECTION ( 'NONE',  ( 0.000000000000000000, 0.000000000000000000, 1.000000000000000000 ) ) ;
#18 = VECTOR ( 'NONE', #48, 39.37007874015748143 ) ;
#19 = EDGE_CURVE ( 'NONE', #209, #372, #94, .T. ) ;
#20 = ADVANCED_FACE ( 'NONE', ( #383 ), #389, .T. ) ;
#21 = COORDINATED_UNIVERSAL_TIME_OFFSET ( 6, 0, .BEHIND. ) ;
#22 = CARTESIAN_POINT ( 'NONE',  ( 0.000000000000000000, 0.000000000000000000, 0.1239999999999999991 ) ) ;
#23 = DIRECTION ( 'NONE',  ( 0.000000000000000000, 0.7071067811865439090, -0.7071067811865511255 ) ) ;
#24 = ORIENTED_EDGE ( 'NONE', *, *, #57, .T. ) ;
#25 = DIRECTION ( 'NONE',  ( 0.000000000000000000, 0.000000000000000000, -1.000000000000000000 ) ) ;
#26 = VERTEX_POINT ( 'NONE', #324 ) ;
#27 = CARTESIAN_POINT ( 'NONE',  ( 0.9375000000000016653, 0.1812500000000001055, 0.000000000000000000 ) ) ;
#28 = ORIENTED_EDGE ( 'NONE', *, *, #386, .T. ) ;
#29 = FACE_OUTER_BOUND ( 'NONE', #273, .T. ) ;
#30 = VERTEX_POINT ( 'NONE', #205 ) ;
#31 = DIRECTION ( 'NONE',  ( -1.000000000000000000, 0.000000000000000000, -0.000000000000000000 ) ) ;
#32 = ORIENTED_EDGE ( 'NONE', *, *, #341, .F. ) ;
#33 = EDGE_CURVE ( 'NONE', #156, #207, #226, .T. ) ;
#34 = LINE ( 'NONE', #251, #229 ) ;
#35 = ORIENTED_EDGE ( 'NONE', *, *, #90, .F. ) ;
#36 = PERSON ( 'UNSPECIFIED', 'UNSPECIFIED', 'UNSPECIFIED', ('UNSPECIFIED'), ('UNSPECIFIED'), ('UNSPECIFIED') ) ;
#37 = ADVANCED_FACE ( 'NONE', ( #10 ), #335, .F. ) ;
#38 = VECTOR ( 'NONE', #23, 39.37007874015748143 ) ;
#39 = DIRECTION ( 'NONE',  ( 0.000000000000000000, 1.000000000000000000, 0.000000000000000000 ) ) ;
#40 = CALENDAR_DATE ( 2022, 20, 4 ) ;
#41 = VECTOR ( 'NONE', #107, 39.37007874015748143 ) ;
#42 = DIRECTION ( 'NONE',  ( 0.000000000000000000, 0.000000000000000000, 1.000000000000000000 ) ) ;
#43 = CARTESIAN_POINT ( 'NONE',  ( 0.7187500000000014433, 0.000000000000000000, 0.000000000000000000 ) ) ;
#44 = COORDINATED_UNIVERSAL_TIME_OFFSET ( 6, 0, .BEHIND. ) ;
#45 = EDGE_CURVE ( 'NONE', #372, #330, #168, .T. ) ;
#46 = APPROVAL_ROLE ( '' ) ;
#47 = APPROVAL_DATE_TIME ( #134, #234 ) ;
#48 = DIRECTION ( 'NONE',  ( 1.000000000000000000, 0.000000000000000000, 0.000000000000000000 ) ) ;
#49 = ORIENTED_EDGE ( 'NONE', *, *, #320, .T. ) ;
#50 = DIRECTION ( 'NONE',  ( 1.000000000000000000, 0.000000000000000000, 0.000000000000000000 ) ) ;
#51 = VERTEX_POINT ( 'NONE', #196 ) ;
#52 = CARTESIAN_POINT ( 'NONE',  ( 1.875000000000000000, 0.000000000000000000, 0.1239999999999999991 ) ) ;
#53 = CC_DESIGN_APPROVAL ( #234, ( #312 ) ) ;
#54 = ORIENTED_EDGE ( 'NONE', *, *, #57, .F. ) ;
#55 = CARTESIAN_POINT ( 'NONE',  ( 1.156250000000001554, 0.1812500000000000777, 0.1239999999999999991 ) ) ;
#56 = ORIENTED_EDGE ( 'NONE', *, *, #190, .F. ) ;
#57 = EDGE_CURVE ( 'NONE', #140, #142, #252, .T. ) ;
#58 = CARTESIAN_POINT ( 'NONE',  ( 6.723129289364932148, 0.6949999999999999512, 0.06199999999999999956 ) ) ;
#59 = APPLICATION_CONTEXT ( 'configuration controlled 3d designs of mechanical parts and assemblies' ) ;
#60 = ORIENTED_EDGE ( 'NONE', *, *, #171, .F. ) ;
#61 = DIRECTION ( 'NONE',  ( -0.000000000000000000, -0.000000000000000000, 1.000000000000000000 ) ) ;
#62 = CC_DESIGN_PERSON_AND_ORGANIZATION_ASSIGNMENT ( #291, #295, ( #368 ) ) ;
#63 = ORIENTED_EDGE ( 'NONE', *, *, #341, .T. ) ;
#64 = AXIS2_PLACEMENT_3D ( 'NONE', #22, #117, #25 ) ;
#65 = CARTESIAN_POINT ( 'NONE',  ( 1.875000000000000000, 0.6330000000000002292, 0.000000000000000000 ) ) ;
#66 = DIRECTION ( 'NONE',  ( -0.000000000000000000, -0.000000000000000000, -1.000000000000000000 ) ) ;
#67 = FACE_OUTER_BOUND ( 'NONE', #172, .T. ) ;
#68 = VECTOR ( 'NONE', #250, 39.37007874015748143 ) ;
#69 =( NAMED_UNIT ( * ) SI_UNIT ( $, .STERADIAN. ) SOLID_ANGLE_UNIT ( ) );
#70 = APPROVAL_ROLE ( '' ) ;
#71 = LOCAL_TIME ( 15, 26, 56.00000000000000000, #170 ) ;
#72 = CALENDAR_DATE ( 2022, 20, 4 ) ;
#73 = DESIGN_CONTEXT ( 'detailed design', #267, 'design' ) ;
#74 = PERSON_AND_ORGANIZATION_ROLE ( 'design_owner' ) ;
#75 = EDGE_CURVE ( 'NONE', #142, #375, #202, .T. ) ;
#76 = LINE ( 'NONE', #198, #137 ) ;
#77 = APPROVAL_STATUS ( 'not_yet_approved' ) ;
#78 = DIRECTION ( 'NONE',  ( 0.000000000000000000, 0.000000000000000000, 1.000000000000000000 ) ) ;
#79 = AXIS2_PLACEMENT_3D ( 'NONE', #248, #379, #218 ) ;
#80 = ORIENTED_EDGE ( 'NONE', *, *, #116, .T. ) ;
#81 = PLANE ( 'NONE',  #325 ) ;
#82 = VERTEX_POINT ( 'NONE', #365 ) ;
#83 = CARTESIAN_POINT ( 'NONE',  ( 0.000000000000000000, 0.000000000000000000, 0.000000000000000000 ) ) ;
#84 = ORIENTED_EDGE ( 'NONE', *, *, #394, .T. ) ;
#85 = CARTESIAN_POINT ( 'NONE',  ( 1.875000000000000000, 0.3165000000000035563, 0.4405000000000002802 ) ) ;
#86 = VECTOR ( 'NONE', #61, 39.37007874015748143 ) ;
#87 = ORIENTED_EDGE ( 'NONE', *, *, #125, .T. ) ;
#88 = EDGE_CURVE ( 'NONE', #148, #243, #76, .T. ) ;
#89 = LINE ( 'NONE', #85, #38 ) ;
#90 = EDGE_CURVE ( 'NONE', #238, #209, #139, .T. ) ;
#91 = ORIENTED_EDGE ( 'NONE', *, *, #200, .T. ) ;
#92 = PRODUCT_RELATED_PRODUCT_CATEGORY ( 'detail', '', ( #405 ) ) ;
#93 = CARTESIAN_POINT ( 'NONE',  ( 0.7187500000000018874, 0.1812500000000000777, 0.000000000000000000 ) ) ;
#94 = LINE ( 'NONE', #217, #130 ) ;
#95 = LINE ( 'NONE', #382, #68 ) ;
#96 = AXIS2_PLACEMENT_3D ( 'NONE', #274, #346, #237 ) ;
#97 = DIRECTION ( 'NONE',  ( -7.536132396315205478E-16, 1.000000000000000000, -0.000000000000000000 ) ) ;
#98 = LINE ( 'NONE', #285, #398 ) ;
#99 = EDGE_CURVE ( 'NONE', #30, #207, #233, .T. ) ;
#100 = DIRECTION ( 'NONE',  ( 1.000000000000000000, 0.000000000000000000, 0.000000000000000000 ) ) ;
#101 = PERSON_AND_ORGANIZATION ( #36, #123 ) ;
#102 = ADVANCED_FACE ( 'NONE', ( #108 ), #298, .F. ) ;
#103 = LOCAL_TIME ( 15, 26, 56.00000000000000000, #167 ) ;
#104 = DIRECTION ( 'NONE',  ( -0.000000000000000000, -0.000000000000000000, 1.000000000000000000 ) ) ;
#105 = AXIS2_PLACEMENT_3D ( 'NONE', #186, #120, #380 ) ;
#106 = DATE_TIME_ROLE ( 'creation_date' ) ;
#107 = DIRECTION ( 'NONE',  ( -0.000000000000000000, 0.7071067811865446862, 0.7071067811865503483 ) ) ;
#108 = FACE_OUTER_BOUND ( 'NONE', #281, .T. ) ;
#109 = ORIENTED_EDGE ( 'NONE', *, *, #344, .T. ) ;
#110 = AXIS2_PLACEMENT_3D ( 'NONE', #301, #141, #31 ) ;
#111 = LINE ( 'NONE', #245, #290 ) ;
#112 = LINE ( 'NONE', #55, #169 ) ;
#113 = ORIENTED_EDGE ( 'NONE', *, *, #200, .F. ) ;
#114 = DIRECTION ( 'NONE',  ( -1.000000000000000000, 0.000000000000000000, 0.000000000000000000 ) ) ;
#115 = EDGE_LOOP ( 'NONE', ( #87, #136, #370, #146 ) ) ;
#116 = EDGE_CURVE ( 'NONE', #238, #51, #181, .T. ) ;
#117 = DIRECTION ( 'NONE',  ( 1.000000000000000000, 0.000000000000000000, 0.000000000000000000 ) ) ;
#118 = ORIENTED_EDGE ( 'NONE', *, *, #116, .F. ) ;
#119 = PLANE ( 'NONE',  #79 ) ;
#120 = DIRECTION ( 'NONE',  ( 1.000000000000000000, 7.536132396315205478E-16, 0.000000000000000000 ) ) ;
#121 = CARTESIAN_POINT ( 'NONE',  ( 0.000000000000000000, 0.000000000000000000, 0.1239999999999999991 ) ) ;
#122 = LINE ( 'NONE', #155, #219 ) ;
#123 = ORGANIZATION ( 'UNSPECIFIED', 'UNSPECIFIED', '' ) ;
#124 = CARTESIAN_POINT ( 'NONE',  ( 0.000000000000000000, 0.000000000000000000, 0.1239999999999999991 ) ) ;
#125 = EDGE_CURVE ( 'NONE', #26, #209, #310, .T. ) ;
#126 = CARTESIAN_POINT ( 'NONE',  ( 0.7187500000000018874, 0.1812500000000000777, 0.1239999999999999991 ) ) ;
#127 = VECTOR ( 'NONE', #145, 39.37007874015748143 ) ;
#128 = APPROVAL ( #392, 'UNSPECIFIED' ) ;
#129 = COORDINATED_UNIVERSAL_TIME_OFFSET ( 6, 0, .BEHIND. ) ;
#130 = VECTOR ( 'NONE', #349, 39.37007874015748143 ) ;
#131 = PERSON_AND_ORGANIZATION_ROLE ( 'classification_officer' ) ;
#132 = ORIENTED_EDGE ( 'NONE', *, *, #278, .T. ) ;
#133 = UNCERTAINTY_MEASURE_WITH_UNIT (LENGTH_MEASURE( 1.000000000000000082E-05 ), #161, 'distance_accuracy_value', 'NONE');
#134 = DATE_AND_TIME ( #40, #103 ) ;
#135 = CARTESIAN_POINT ( 'NONE',  ( 0.000000000000000000, 0.6949999999999999512, 0.000000000000000000 ) ) ;
#136 = ORIENTED_EDGE ( 'NONE', *, *, #19, .T. ) ;
#137 = VECTOR ( 'NONE', #329, 39.37007874015748143 ) ;
#138 = SHAPE_DEFINITION_REPRESENTATION ( #277, #2 ) ;
#139 = LINE ( 'NONE', #264, #41 ) ;
#140 = VERTEX_POINT ( 'NONE', #242 ) ;
#141 = DIRECTION ( 'NONE',  ( 0.000000000000000000, 0.000000000000000000, -1.000000000000000000 ) ) ;
#142 = VERTEX_POINT ( 'NONE', #93 ) ;
#143 = CC_DESIGN_PERSON_AND_ORGANIZATION_ASSIGNMENT ( #321, #131, ( #312 ) ) ;
#144 = AXIS2_PLACEMENT_3D ( 'NONE', #296, #17, #292 ) ;
#145 = DIRECTION ( 'NONE',  ( 0.000000000000000000, 1.000000000000000000, 0.000000000000000000 ) ) ;
#146 = ORIENTED_EDGE ( 'NONE', *, *, #190, .T. ) ;
#147 = CARTESIAN_POINT ( 'NONE',  ( 1.156250000000001554, 0.1812500000000000777, 0.000000000000000000 ) ) ;
#148 = VERTEX_POINT ( 'NONE', #216 ) ;
#149 = EDGE_CURVE ( 'NONE', #378, #148, #300, .T. ) ;
#150 = PLANE ( 'NONE',  #96 ) ;
#151 = ORIENTED_EDGE ( 'NONE', *, *, #33, .F. ) ;
#152 = DIRECTION ( 'NONE',  ( -0.000000000000000000, -0.000000000000000000, 1.000000000000000000 ) ) ;
#153 =( GEOMETRIC_REPRESENTATION_CONTEXT ( 3 ) GLOBAL_UNCERTAINTY_ASSIGNED_CONTEXT ( ( #133 ) ) GLOBAL_UNIT_ASSIGNED_CONTEXT ( ( #161, #355, #69 ) ) REPRESENTATION_CONTEXT ( 'NONE', 'WORKASPACE' ) );
#154 = ORIENTED_EDGE ( 'NONE', *, *, #394, .F. ) ;
#155 = CARTESIAN_POINT ( 'NONE',  ( 0.7187500000000018874, 0.1812500000000000777, 0.1239999999999999991 ) ) ;
#156 = VERTEX_POINT ( 'NONE', #270 ) ;
#157 = DIRECTION ( 'NONE',  ( 0.000000000000000000, -0.7071067811865446862, -0.7071067811865503483 ) ) ;
#158 = CC_DESIGN_SECURITY_CLASSIFICATION ( #312, ( #368 ) ) ;
#159 = VECTOR ( 'NONE', #165, 39.37007874015748143 ) ;
#160 = ADVANCED_FACE ( 'NONE', ( #399 ), #272, .F. ) ;
#161 =( CONVERSION_BASED_UNIT ( 'INCH', #317 ) LENGTH_UNIT ( ) NAMED_UNIT ( #241 ) );
#162 = VECTOR ( 'NONE', #353, 39.37007874015748143 ) ;
#163 = DIRECTION ( 'NONE',  ( 1.000000000000000000, 0.000000000000000000, 0.000000000000000000 ) ) ;
#164 = DATE_TIME_ROLE ( 'classification_date' ) ;
#165 = DIRECTION ( 'NONE',  ( -0.000000000000000000, -0.000000000000000000, 1.000000000000000000 ) ) ;
#166 = ORIENTED_EDGE ( 'NONE', *, *, #88, .T. ) ;
#167 = COORDINATED_UNIVERSAL_TIME_OFFSET ( 6, 0, .BEHIND. ) ;
#168 = LINE ( 'NONE', #362, #11 ) ;
#169 = VECTOR ( 'NONE', #369, 39.37007874015748143 ) ;
#170 = COORDINATED_UNIVERSAL_TIME_OFFSET ( 6, 0, .BEHIND. ) ;
#171 = EDGE_CURVE ( 'NONE', #243, #330, #210, .T. ) ;
#172 = EDGE_LOOP ( 'NONE', ( #260, #347, #180, #84 ) ) ;
#173 = DIRECTION ( 'NONE',  ( -1.000000000000000000, 0.000000000000000000, -0.000000000000000000 ) ) ;
#174 = ORIENTED_EDGE ( 'NONE', *, *, #232, .F. ) ;
#175 = DIRECTION ( 'NONE',  ( 1.000000000000000000, 0.000000000000000000, 0.000000000000000000 ) ) ;
#176 = EDGE_LOOP ( 'NONE', ( #182, #305, #235, #215 ) ) ;
#177 = CC_DESIGN_APPROVAL ( #282, ( #368 ) ) ;
#178 = LINE ( 'NONE', #147, #350 ) ;
#179 = EDGE_CURVE ( 'NONE', #148, #404, #112, .T. ) ;
#180 = ORIENTED_EDGE ( 'NONE', *, *, #99, .F. ) ;
#181 = LINE ( 'NONE', #401, #390 ) ;
#182 = ORIENTED_EDGE ( 'NONE', *, *, #179, .T. ) ;
#183 = DIRECTION ( 'NONE',  ( 0.000000000000000000, 0.7071067811865511255, 0.7071067811865439090 ) ) ;
#184 = PLANE ( 'NONE',  #105 ) ;
#185 = CARTESIAN_POINT ( 'NONE',  ( 1.875000000000000000, 0.3785000000000027787, -0.2544999999999997820 ) ) ;
#186 = CARTESIAN_POINT ( 'NONE',  ( 1.156250000000001554, 0.1812500000000000777, 0.000000000000000000 ) ) ;
#187 = AXIS2_PLACEMENT_3D ( 'NONE', #360, #228, #78 ) ;
#188 = ADVANCED_FACE ( 'NONE', ( #336 ), #304, .F. ) ;
#189 = CARTESIAN_POINT ( 'NONE',  ( 0.7187500000000018874, 0.1812500000000000777, 0.000000000000000000 ) ) ;
#190 = EDGE_CURVE ( 'NONE', #330, #26, #89, .T. ) ;
#191 = AXIS2_PLACEMENT_3D ( 'NONE', #27, #152, #343 ) ;
#192 = PERSON_AND_ORGANIZATION_ROLE ( 'creator' ) ;
#193 = ORIENTED_EDGE ( 'NONE', *, *, #88, .F. ) ;
#194 = VECTOR ( 'NONE', #66, 39.37007874015748143 ) ;
#195 = CALENDAR_DATE ( 2022, 20, 4 ) ;
#196 = CARTESIAN_POINT ( 'NONE',  ( 0.000000000000000000, 0.000000000000000000, 0.000000000000000000 ) ) ;
#197 = PERSON_AND_ORGANIZATION ( #36, #123 ) ;
#198 = CARTESIAN_POINT ( 'NONE',  ( 0.000000000000000000, 0.000000000000000000, 0.1239999999999999991 ) ) ;
#199 = ORIENTED_EDGE ( 'NONE', *, *, #99, .T. ) ;
#200 = EDGE_CURVE ( 'NONE', #238, #402, #239, .T. ) ;
#201 = DATE_AND_TIME ( #195, #204 ) ;
#202 = LINE ( 'NONE', #15, #236 ) ;
#203 = ORIENTED_EDGE ( 'NONE', *, *, #344, .F. ) ;
#204 = LOCAL_TIME ( 15, 26, 56.00000000000000000, #129 ) ;
#205 = CARTESIAN_POINT ( 'NONE',  ( 0.000000000000000000, 0.000000000000000000, 0.1239999999999999991 ) ) ;
#206 = CC_DESIGN_PERSON_AND_ORGANIZATION_ASSIGNMENT ( #12, #266, ( #368 ) ) ;
#207 = VERTEX_POINT ( 'NONE', #268 ) ;
#208 = DIRECTION ( 'NONE',  ( 0.000000000000000000, -0.7071067811865439090, 0.7071067811865511255 ) ) ;
#209 = VERTEX_POINT ( 'NONE', #214 ) ;
#210 = LINE ( 'NONE', #374, #127 ) ;
#211 = ORIENTED_EDGE ( 'NONE', *, *, #171, .T. ) ;
#212 = DIRECTION ( 'NONE',  ( -0.000000000000000000, -1.000000000000000000, -0.000000000000000000 ) ) ;
#213 = ORIENTED_EDGE ( 'NONE', *, *, #75, .T. ) ;
#214 = CARTESIAN_POINT ( 'NONE',  ( 2.185478394931410575E-15, 0.6949999999999999512, 0.06199999999999999956 ) ) ;
#215 = ORIENTED_EDGE ( 'NONE', *, *, #149, .T. ) ;
#216 = CARTESIAN_POINT ( 'NONE',  ( 1.156250000000001554, 0.000000000000000000, 0.1239999999999999991 ) ) ;
#217 = CARTESIAN_POINT ( 'NONE',  ( 0.000000000000000000, 0.3165000000000035563, 0.4405000000000002802 ) ) ;
#218 = DIRECTION ( 'NONE',  ( 0.000000000000000000, 0.7071067811865446862, 0.7071067811865503483 ) ) ;
#219 = VECTOR ( 'NONE', #283, 39.37007874015748143 ) ;
#220 = LINE ( 'NONE', #185, #224 ) ;
#221 = EDGE_CURVE ( 'NONE', #378, #82, #371, .T. ) ;
#222 = CARTESIAN_POINT ( 'NONE',  ( 2.185478394931410575E-15, 0.6330000000000005622, 0.1239999999999999991 ) ) ;
#223 = DIRECTION ( 'NONE',  ( 0.000000000000000000, 0.000000000000000000, 1.000000000000000000 ) ) ;
#224 = VECTOR ( 'NONE', #157, 39.37007874015748143 ) ;
#225 = DIRECTION ( 'NONE',  ( 0.000000000000000000, -0.000000000000000000, 1.000000000000000000 ) ) ;
#226 = LINE ( 'NONE', #43, #159 ) ;
#227 = SECURITY_CLASSIFICATION_LEVEL ( 'unclassified' ) ;
#228 = DIRECTION ( 'NONE',  ( -1.000000000000000000, 0.000000000000000000, 0.000000000000000000 ) ) ;
#229 = VECTOR ( 'NONE', #97, 39.37007874015748143 ) ;
#230 = DATE_AND_TIME ( #327, #71 ) ;
#231 = APPROVAL_ROLE ( '' ) ;
#232 = EDGE_CURVE ( 'NONE', #51, #156, #111, .T. ) ;
#233 = LINE ( 'NONE', #367, #18 ) ;
#234 = APPROVAL ( #14, 'UNSPECIFIED' ) ;
#235 = ORIENTED_EDGE ( 'NONE', *, *, #320, .F. ) ;
#236 = VECTOR ( 'NONE', #104, 39.37007874015748143 ) ;
#237 = DIRECTION ( 'NONE',  ( -2.260839718894562038E-15, -1.000000000000000000, 0.000000000000000000 ) ) ;
#238 = VERTEX_POINT ( 'NONE', #338 ) ;
#239 = LINE ( 'NONE', #280, #334 ) ;
#240 = ORIENTED_EDGE ( 'NONE', *, *, #179, .F. ) ;
#241 = DIMENSIONAL_EXPONENTS ( 1.000000000000000000, 0.000000000000000000, 0.000000000000000000, 0.000000000000000000, 0.000000000000000000, 0.000000000000000000, 0.000000000000000000 ) ;
#242 = CARTESIAN_POINT ( 'NONE',  ( 1.156250000000001554, 0.1812500000000000777, 0.000000000000000000 ) ) ;
#243 = VERTEX_POINT ( 'NONE', #52 ) ;
#244 = AXIS2_PLACEMENT_3D ( 'NONE', #384, #387, #319 ) ;
#245 = CARTESIAN_POINT ( 'NONE',  ( 0.000000000000000000, 0.000000000000000000, 0.000000000000000000 ) ) ;
#246 = EDGE_LOOP ( 'NONE', ( #32, #240, #166, #211, #407, #132, #199, #293 ) ) ;
#247 = EDGE_CURVE ( 'NONE', #140, #404, #178, .T. ) ;
#248 = CARTESIAN_POINT ( 'NONE',  ( 6.723129289364932148, 0.6949999999999999512, 0.06199999999999999956 ) ) ;
#249 = EDGE_LOOP ( 'NONE', ( #49, #24, #109, #174, #118, #91, #311, #333 ) ) ;
#250 = DIRECTION ( 'NONE',  ( -0.000000000000000000, -0.000000000000000000, -1.000000000000000000 ) ) ;
#251 = CARTESIAN_POINT ( 'NONE',  ( 1.156250000000001554, 0.1812500000000000777, 0.000000000000000000 ) ) ;
#252 = CIRCLE ( 'NONE', #144, 0.2187499999999998057 ) ;
#253 = CARTESIAN_POINT ( 'NONE',  ( 0.9375000000000016653, 0.1812500000000001055, 0.1239999999999999991 ) ) ;
#254 = LINE ( 'NONE', #189, #162 ) ;
#255 = PLANE ( 'NONE',  #9 ) ;
#256 = CALENDAR_DATE ( 2022, 20, 4 ) ;
#257 = CARTESIAN_POINT ( 'NONE',  ( 0.000000000000000000, 0.000000000000000000, 0.000000000000000000 ) ) ;
#258 = DIRECTION ( 'NONE',  ( 1.000000000000000000, -0.000000000000000000, 0.000000000000000000 ) ) ;
#259 = ADVANCED_FACE ( 'NONE', ( #29 ), #150, .F. ) ;
#260 = ORIENTED_EDGE ( 'NONE', *, *, #232, .T. ) ;
#261 = APPROVAL_PERSON_ORGANIZATION ( #361, #128, #70 ) ;
#262 = ADVANCED_FACE ( 'NONE', ( #377 ), #81, .T. ) ;
#263 = MECHANICAL_CONTEXT ( 'NONE', #59, 'mechanical' ) ;
#264 = CARTESIAN_POINT ( 'NONE',  ( 0.000000000000000000, 0.3785000000000027787, -0.2544999999999997820 ) ) ;
#265 = ORIENTED_EDGE ( 'NONE', *, *, #149, .F. ) ;
#266 = PERSON_AND_ORGANIZATION_ROLE ( 'design_supplier' ) ;
#267 = APPLICATION_CONTEXT ( 'configuration controlled 3d designs of mechanical parts and assemblies' ) ;
#268 = CARTESIAN_POINT ( 'NONE',  ( 0.7187500000000014433, 0.000000000000000000, 0.1239999999999999991 ) ) ;
#269 = VECTOR ( 'NONE', #357, 39.37007874015748143 ) ;
#270 = CARTESIAN_POINT ( 'NONE',  ( 0.7187500000000014433, 0.000000000000000000, 0.000000000000000000 ) ) ;
#271 = ORIENTED_EDGE ( 'NONE', *, *, #278, .F. ) ;
#272 = PLANE ( 'NONE',  #110 ) ;
#273 = EDGE_LOOP ( 'NONE', ( #13, #151, #203, #213 ) ) ;
#274 = CARTESIAN_POINT ( 'NONE',  ( 0.7187500000000018874, 0.1812500000000000777, 0.000000000000000000 ) ) ;
#275 = ORIENTED_EDGE ( 'NONE', *, *, #354, .T. ) ;
#276 = ADVANCED_FACE ( 'NONE', ( #406 ), #119, .T. ) ;
#277 = PRODUCT_DEFINITION_SHAPE ( 'NONE', 'NONE',  #294 ) ;
#278 = EDGE_CURVE ( 'NONE', #372, #30, #313, .T. ) ;
#279 = AXIS2_PLACEMENT_3D ( 'NONE', #257, #42, #163 ) ;
#280 = CARTESIAN_POINT ( 'NONE',  ( 0.000000000000000000, 0.6330000000000004512, 0.000000000000000000 ) ) ;
#281 = EDGE_LOOP ( 'NONE', ( #396, #35, #80, #154, #271 ) ) ;
#282 = APPROVAL ( #77, 'UNSPECIFIED' ) ;
#283 = DIRECTION ( 'NONE',  ( -2.260839718894561643E-15, -1.000000000000000000, 0.000000000000000000 ) ) ;
#284 = ORIENTED_EDGE ( 'NONE', *, *, #306, .F. ) ;
#285 = CARTESIAN_POINT ( 'NONE',  ( 1.875000000000000000, 0.000000000000000000, 0.000000000000000000 ) ) ;
#286 = APPROVAL_PERSON_ORGANIZATION ( #364, #234, #46 ) ;
#287 = CLOSED_SHELL ( 'NONE', ( #385, #102, #37, #160, #20, #309, #262, #276, #188, #7, #259 ) ) ;
#288 = LINE ( 'NONE', #124, #194 ) ;
#289 = CARTESIAN_POINT ( 'NONE',  ( 1.875000000000001110, 0.6330000000000005622, 0.1239999999999999991 ) ) ;
#290 = VECTOR ( 'NONE', #175, 39.37007874015748143 ) ;
#291 = PERSON_AND_ORGANIZATION ( #36, #123 ) ;
#292 = DIRECTION ( 'NONE',  ( 1.000000000000000000, 0.000000000000000000, 0.000000000000000000 ) ) ;
#293 = ORIENTED_EDGE ( 'NONE', *, *, #356, .F. ) ;
#294 = PRODUCT_DEFINITION ( 'UNKNOWN', '', #368, #73 ) ;
#295 = PERSON_AND_ORGANIZATION_ROLE ( 'creator' ) ;
#296 = CARTESIAN_POINT ( 'NONE',  ( 0.9375000000000016653, 0.1812500000000001055, 0.000000000000000000 ) ) ;
#297 = LOCAL_TIME ( 15, 26, 56.00000000000000000, #21 ) ;
#298 = PLANE ( 'NONE',  #64 ) ;
#299 = ORIENTED_EDGE ( 'NONE', *, *, #125, .F. ) ;
#300 = LINE ( 'NONE', #348, #86 ) ;
#301 = CARTESIAN_POINT ( 'NONE',  ( 0.000000000000000000, 0.6949999999999999512, 0.1239999999999999991 ) ) ;
#302 = ORIENTED_EDGE ( 'NONE', *, *, #247, .T. ) ;
#303 = AXIS2_PLACEMENT_3D ( 'NONE', #253, #223, #100 ) ;
#304 = CYLINDRICAL_SURFACE ( 'NONE', #191, 0.2187499999999998057 ) ;
#305 = ORIENTED_EDGE ( 'NONE', *, *, #247, .F. ) ;
#306 = EDGE_CURVE ( 'NONE', #26, #402, #220, .T. ) ;
#307 = DIRECTION ( 'NONE',  ( -0.000000000000000000, -0.000000000000000000, 1.000000000000000000 ) ) ;
#308 = ORIENTED_EDGE ( 'NONE', *, *, #306, .T. ) ;
#309 = ADVANCED_FACE ( 'NONE', ( #67 ), #315, .F. ) ;
#310 = LINE ( 'NONE', #403, #376 ) ;
#311 = ORIENTED_EDGE ( 'NONE', *, *, #354, .F. ) ;
#312 = SECURITY_CLASSIFICATION ( '', '', #227 ) ;
#313 = LINE ( 'NONE', #5, #269 ) ;
#314 = ORIENTED_EDGE ( 'NONE', *, *, #221, .T. ) ;
#315 = PLANE ( 'NONE',  #244 ) ;
#316 = CARTESIAN_POINT ( 'NONE',  ( 1.156250000000001554, 0.1812500000000000777, 0.1239999999999999991 ) ) ;
#317 = LENGTH_MEASURE_WITH_UNIT ( LENGTH_MEASURE( 0.02539999999999999897 ), #8 );
#318 = VECTOR ( 'NONE', #397, 39.37007874015748143 ) ;
#319 = DIRECTION ( 'NONE',  ( 0.000000000000000000, -0.000000000000000000, 1.000000000000000000 ) ) ;
#320 = EDGE_CURVE ( 'NONE', #378, #140, #34, .T. ) ;
#321 = PERSON_AND_ORGANIZATION ( #36, #123 ) ;
#322 = CC_DESIGN_DATE_AND_TIME_ASSIGNMENT ( #201, #106, ( #294 ) ) ;
#323 = APPLICATION_PROTOCOL_DEFINITION ( 'international standard', 'config_control_design', 1994, #267 ) ;
#324 = CARTESIAN_POINT ( 'NONE',  ( 1.875000000000001110, 0.6949999999999999512, 0.06199999999999999956 ) ) ;
#325 = AXIS2_PLACEMENT_3D ( 'NONE', #58, #183, #208 ) ;
#326 = EDGE_LOOP ( 'NONE', ( #63, #339, #54, #302 ) ) ;
#327 = CALENDAR_DATE ( 2022, 20, 4 ) ;
#328 = PERSON_AND_ORGANIZATION ( #36, #123 ) ;
#329 = DIRECTION ( 'NONE',  ( 1.000000000000000000, 0.000000000000000000, 0.000000000000000000 ) ) ;
#330 = VERTEX_POINT ( 'NONE', #289 ) ;
#331 = APPLICATION_PROTOCOL_DEFINITION ( 'international standard', 'config_control_design', 1994, #59 ) ;
#332 = DIRECTION ( 'NONE',  ( 0.000000000000000000, 0.000000000000000000, -1.000000000000000000 ) ) ;
#333 = ORIENTED_EDGE ( 'NONE', *, *, #221, .F. ) ;
#334 = VECTOR ( 'NONE', #50, 39.37007874015748143 ) ;
#335 = PLANE ( 'NONE',  #187 ) ;
#336 = FACE_OUTER_BOUND ( 'NONE', #326, .T. ) ;
#337 = EDGE_LOOP ( 'NONE', ( #56, #60, #28, #275, #284 ) ) ;
#338 = CARTESIAN_POINT ( 'NONE',  ( 2.185478394931410575E-15, 0.6330000000000004512, 1.707404996040164512E-17 ) ) ;
#339 = ORIENTED_EDGE ( 'NONE', *, *, #75, .F. ) ;
#340 = CC_DESIGN_APPROVAL ( #128, ( #294 ) ) ;
#341 = EDGE_CURVE ( 'NONE', #404, #375, #381, .T. ) ;
#342 = AXIS2_PLACEMENT_3D ( 'NONE', #135, #332, #173 ) ;
#343 = DIRECTION ( 'NONE',  ( 1.000000000000000000, 0.000000000000000000, 0.000000000000000000 ) ) ;
#344 = EDGE_CURVE ( 'NONE', #142, #156, #254, .T. ) ;
#345 = FACE_OUTER_BOUND ( 'NONE', #176, .T. ) ;
#346 = DIRECTION ( 'NONE',  ( -1.000000000000000000, 2.260839718894562038E-15, 0.000000000000000000 ) ) ;
#347 = ORIENTED_EDGE ( 'NONE', *, *, #33, .T. ) ;
#348 = CARTESIAN_POINT ( 'NONE',  ( 1.156250000000001554, 0.000000000000000000, 0.000000000000000000 ) ) ;
#349 = DIRECTION ( 'NONE',  ( 0.000000000000000000, -0.7071067811865439090, 0.7071067811865511255 ) ) ;
#350 = VECTOR ( 'NONE', #307, 39.37007874015748143 ) ;
#351 = FACE_OUTER_BOUND ( 'NONE', #393, .T. ) ;
#352 = CARTESIAN_POINT ( 'NONE',  ( 1.156250000000001554, 0.000000000000000000, 0.000000000000000000 ) ) ;
#353 = DIRECTION ( 'NONE',  ( -2.260839718894561643E-15, -1.000000000000000000, 0.000000000000000000 ) ) ;
#354 = EDGE_CURVE ( 'NONE', #82, #402, #98, .T. ) ;
#355 =( NAMED_UNIT ( * ) PLANE_ANGLE_UNIT ( ) SI_UNIT ( $, .RADIAN. ) );
#356 = EDGE_CURVE ( 'NONE', #375, #207, #122, .T. ) ;
#357 = DIRECTION ( 'NONE',  ( -0.000000000000000000, -1.000000000000000000, -0.000000000000000000 ) ) ;
#358 = CC_DESIGN_PERSON_AND_ORGANIZATION_ASSIGNMENT ( #197, #192, ( #294 ) ) ;
#359 = MANIFOLD_SOLID_BREP ( 'SLOT', #287 ) ;
#360 = CARTESIAN_POINT ( 'NONE',  ( 1.875000000000000000, 0.000000000000000000, 0.1239999999999999991 ) ) ;
#361 = PERSON_AND_ORGANIZATION ( #36, #123 ) ;
#362 = CARTESIAN_POINT ( 'NONE',  ( 0.000000000000000000, 0.6330000000000005622, 0.1239999999999999991 ) ) ;
#363 = APPROVAL_PERSON_ORGANIZATION ( #328, #282, #231 ) ;
#364 = PERSON_AND_ORGANIZATION ( #36, #123 ) ;
#365 = CARTESIAN_POINT ( 'NONE',  ( 1.875000000000000000, 0.000000000000000000, 0.000000000000000000 ) ) ;
#366 = DATE_AND_TIME ( #256, #297 ) ;
#367 = CARTESIAN_POINT ( 'NONE',  ( 0.000000000000000000, 0.000000000000000000, 0.1239999999999999991 ) ) ;
#368 = PRODUCT_DEFINITION_FORMATION_WITH_SPECIFIED_SOURCE ( 'ANY', '', #405, .NOT_KNOWN. ) ;
#369 = DIRECTION ( 'NONE',  ( -7.536132396315205478E-16, 1.000000000000000000, -0.000000000000000000 ) ) ;
#370 = ORIENTED_EDGE ( 'NONE', *, *, #45, .T. ) ;
#371 = LINE ( 'NONE', #83, #318 ) ;
#372 = VERTEX_POINT ( 'NONE', #222 ) ;
#373 = CC_DESIGN_PERSON_AND_ORGANIZATION_ASSIGNMENT ( #101, #74, ( #405 ) ) ;
#374 = CARTESIAN_POINT ( 'NONE',  ( 1.875000000000000000, 0.000000000000000000, 0.1239999999999999991 ) ) ;
#375 = VERTEX_POINT ( 'NONE', #126 ) ;
#376 = VECTOR ( 'NONE', #114, 39.37007874015748143 ) ;
#377 = FACE_OUTER_BOUND ( 'NONE', #115, .T. ) ;
#378 = VERTEX_POINT ( 'NONE', #352 ) ;
#379 = DIRECTION ( 'NONE',  ( 0.000000000000000000, 0.7071067811865503483, -0.7071067811865446862 ) ) ;
#380 = DIRECTION ( 'NONE',  ( -7.536132396315205478E-16, 1.000000000000000000, 0.000000000000000000 ) ) ;
#381 = CIRCLE ( 'NONE', #303, 0.2187499999999998057 ) ;
#382 = CARTESIAN_POINT ( 'NONE',  ( 1.875000000000000000, 0.000000000000000000, 0.1239999999999999991 ) ) ;
#383 = FACE_OUTER_BOUND ( 'NONE', #249, .T. ) ;
#384 = CARTESIAN_POINT ( 'NONE',  ( 0.000000000000000000, 0.000000000000000000, 0.1239999999999999991 ) ) ;
#385 = ADVANCED_FACE ( 'NONE', ( #351 ), #255, .F. ) ;
#386 = EDGE_CURVE ( 'NONE', #243, #82, #95, .T. ) ;
#387 = DIRECTION ( 'NONE',  ( 0.000000000000000000, 1.000000000000000000, 0.000000000000000000 ) ) ;
#388 = APPROVAL_DATE_TIME ( #230, #128 ) ;
#389 = PLANE ( 'NONE',  #342 ) ;
#390 = VECTOR ( 'NONE', #212, 39.37007874015748143 ) ;
#391 = EDGE_LOOP ( 'NONE', ( #113, #400, #299, #308 ) ) ;
#392 = APPROVAL_STATUS ( 'not_yet_approved' ) ;
#393 = EDGE_LOOP ( 'NONE', ( #193, #265, #314, #3 ) ) ;
#394 = EDGE_CURVE ( 'NONE', #30, #51, #288, .T. ) ;
#395 = APPROVAL_DATE_TIME ( #366, #282 ) ;
#396 = ORIENTED_EDGE ( 'NONE', *, *, #19, .F. ) ;
#397 = DIRECTION ( 'NONE',  ( 1.000000000000000000, 0.000000000000000000, 0.000000000000000000 ) ) ;
#398 = VECTOR ( 'NONE', #39, 39.37007874015748143 ) ;
#399 = FACE_OUTER_BOUND ( 'NONE', #246, .T. ) ;
#400 = ORIENTED_EDGE ( 'NONE', *, *, #90, .T. ) ;
#401 = CARTESIAN_POINT ( 'NONE',  ( 0.000000000000000000, 0.000000000000000000, 0.000000000000000000 ) ) ;
#402 = VERTEX_POINT ( 'NONE', #65 ) ;
#403 = CARTESIAN_POINT ( 'NONE',  ( 6.723129289364932148, 0.6949999999999999512, 0.06199999999999999956 ) ) ;
#404 = VERTEX_POINT ( 'NONE', #316 ) ;
#405 = PRODUCT ( 'J394', 'J394', '', ( #263 ) ) ;
#406 = FACE_OUTER_BOUND ( 'NONE', #391, .T. ) ;
#407 = ORIENTED_EDGE ( 'NONE', *, *, #45, .F. ) ;
ENDSEC;
END-ISO-10303-21;
