ISO-10303-21;
HEADER;
FILE_DESCRIPTION (( 'STEP AP203' ),
    '1' );
FILE_NAME ('J158.STEP',
    '2022-04-27T15:23:26',
    ( '' ),
    ( '' ),
    'SwSTEP 2.0',
    'SolidWorks 2020',
    '' );
FILE_SCHEMA (( 'CONFIG_CONTROL_DESIGN' ));
ENDSEC;

DATA;
#1 = CALENDAR_DATE ( 2022, 27, 4 ) ;
#2 = DIRECTION ( 'NONE',  ( 2.185478394931410180E-15, -1.000000000000000000, 0.000000000000000000 ) ) ;
#3 = ADVANCED_FACE ( 'NONE', ( #160 ), #220, .F. ) ;
#4 =( NAMED_UNIT ( * ) SI_UNIT ( $, .STERADIAN. ) SOLID_ANGLE_UNIT ( ) );
#5 = FACE_OUTER_BOUND ( 'NONE', #88, .T. ) ;
#6 = VERTEX_POINT ( 'NONE', #59 ) ;
#7 = VECTOR ( 'NONE', #141, 39.37007874015748143 ) ;
#8 = DIRECTION ( 'NONE',  ( 1.000000000000000000, 0.000000000000000000, 0.000000000000000000 ) ) ;
#9 = LINE ( 'NONE', #108, #123 ) ;
#10 = EDGE_CURVE ( 'NONE', #70, #213, #136, .T. ) ;
#11 = PLANE ( 'NONE',  #187 ) ;
#12 = CC_DESIGN_PERSON_AND_ORGANIZATION_ASSIGNMENT ( #189, #282, ( #27 ) ) ;
#13 = CARTESIAN_POINT ( 'NONE',  ( 0.000000000000000000, 0.000000000000000000, -0.1199999999999999956 ) ) ;
#14 = EDGE_CURVE ( 'NONE', #70, #325, #194, .T. ) ;
#15 = DIRECTION ( 'NONE',  ( 1.000000000000000000, 0.000000000000000000, 0.000000000000000000 ) ) ;
#16 = EDGE_LOOP ( 'NONE', ( #342, #79, #197, #211 ) ) ;
#17 = LINE ( 'NONE', #118, #77 ) ;
#18 = AXIS2_PLACEMENT_3D ( 'NONE', #168, #334, #109 ) ;
#19 = ORIENTED_EDGE ( 'NONE', *, *, #387, .F. ) ;
#20 = LOCAL_TIME ( 10, 23, 26.00000000000000000, #69 ) ;
#21 = DIRECTION ( 'NONE',  ( 1.000000000000000000, 0.000000000000000000, 0.000000000000000000 ) ) ;
#22 = EDGE_LOOP ( 'NONE', ( #47, #101, #182, #64 ) ) ;
#23 = EDGE_CURVE ( 'NONE', #353, #285, #270, .T. ) ;
#24 = CARTESIAN_POINT ( 'NONE',  ( 1.250000000000000000, 0.1249999999999985983, -0.1199999999999999956 ) ) ;
#25 = VERTEX_POINT ( 'NONE', #166 ) ;
#26 = APPROVAL_ROLE ( '' ) ;
#27 = PRODUCT_DEFINITION_FORMATION_WITH_SPECIFIED_SOURCE ( 'ANY', '', #174, .NOT_KNOWN. ) ;
#28 = DATE_AND_TIME ( #255, #116 ) ;
#29 = DIRECTION ( 'NONE',  ( -0.000000000000000000, -1.000000000000000000, -0.000000000000000000 ) ) ;
#30 = DIRECTION ( 'NONE',  ( -0.000000000000000000, -0.7071067811865442421, -0.7071067811865507924 ) ) ;
#31 = EDGE_LOOP ( 'NONE', ( #322, #327, #217, #190, #281, #312, #137, #125 ) ) ;
#32 = VECTOR ( 'NONE', #151, 39.37007874015748143 ) ;
#33 = DATE_AND_TIME ( #352, #336 ) ;
#34 = ORIENTED_EDGE ( 'NONE', *, *, #144, .T. ) ;
#35 = ORIENTED_EDGE ( 'NONE', *, *, #48, .F. ) ;
#36 = DIRECTION ( 'NONE',  ( -1.000000000000000000, 0.000000000000000000, -0.000000000000000000 ) ) ;
#37 = CLOSED_SHELL ( 'NONE', ( #130, #82, #390, #140, #176, #89, #276, #318, #173, #152, #3 ) ) ;
#38 = DIRECTION ( 'NONE',  ( 0.000000000000000000, 0.000000000000000000, -1.000000000000000000 ) ) ;
#39 = LINE ( 'NONE', #234, #145 ) ;
#40 = APPROVAL ( #92, 'UNSPECIFIED' ) ;
#41 = LINE ( 'NONE', #175, #50 ) ;
#42 = AXIS2_PLACEMENT_3D ( 'NONE', #288, #283, #103 ) ;
#43 = LINE ( 'NONE', #178, #201 ) ;
#44 = CARTESIAN_POINT ( 'NONE',  ( 0.000000000000000000, 0.6250000000000000000, -0.05999999999999999084 ) ) ;
#45 = ORIENTED_EDGE ( 'NONE', *, *, #321, .F. ) ;
#46 = DIRECTION ( 'NONE',  ( 2.185478394931410180E-15, -1.000000000000000000, 0.000000000000000000 ) ) ;
#47 = ORIENTED_EDGE ( 'NONE', *, *, #296, .F. ) ;
#48 = EDGE_CURVE ( 'NONE', #344, #213, #61, .T. ) ;
#49 = FACE_OUTER_BOUND ( 'NONE', #93, .T. ) ;
#50 = VECTOR ( 'NONE', #146, 39.37007874015748143 ) ;
#51 = ORIENTED_EDGE ( 'NONE', *, *, #233, .F. ) ;
#52 = SECURITY_CLASSIFICATION ( '', '', #100 ) ;
#53 = DIRECTION ( 'NONE',  ( 1.000000000000000000, 0.000000000000000000, 0.000000000000000000 ) ) ;
#54 = ORIENTED_EDGE ( 'NONE', *, *, #202, .T. ) ;
#55 = CARTESIAN_POINT ( 'NONE',  ( 0.000000000000000000, 0.000000000000000000, 0.000000000000000000 ) ) ;
#56 = EDGE_CURVE ( 'NONE', #285, #399, #128, .T. ) ;
#57 = ORIENTED_EDGE ( 'NONE', *, *, #296, .T. ) ;
#58 = COORDINATED_UNIVERSAL_TIME_OFFSET ( 6, 0, .BEHIND. ) ;
#59 = CARTESIAN_POINT ( 'NONE',  ( 0.7499999999999998890, 0.1250000000000000278, -0.1199999999999999956 ) ) ;
#60 = APPLICATION_PROTOCOL_DEFINITION ( 'international standard', 'config_control_design', 1994, #397 ) ;
#61 = LINE ( 'NONE', #291, #299 ) ;
#62 = EDGE_CURVE ( 'NONE', #150, #70, #134, .T. ) ;
#63 = PERSON_AND_ORGANIZATION ( #231, #221 ) ;
#64 = ORIENTED_EDGE ( 'NONE', *, *, #311, .F. ) ;
#65 = PERSON_AND_ORGANIZATION ( #231, #221 ) ;
#66 = EDGE_CURVE ( 'NONE', #314, #344, #383, .T. ) ;
#67 = DIRECTION ( 'NONE',  ( 2.185478394931410180E-15, -1.000000000000000000, 0.000000000000000000 ) ) ;
#68 = LOCAL_TIME ( 10, 23, 26.00000000000000000, #316 ) ;
#69 = COORDINATED_UNIVERSAL_TIME_OFFSET ( 6, 0, .BEHIND. ) ;
#70 = VERTEX_POINT ( 'NONE', #98 ) ;
#71 = DIRECTION ( 'NONE',  ( -0.000000000000000000, -0.000000000000000000, 1.000000000000000000 ) ) ;
#72 = FACE_OUTER_BOUND ( 'NONE', #375, .T. ) ;
#73 = VECTOR ( 'NONE', #30, 39.37007874015748143 ) ;
#74 = DIRECTION ( 'NONE',  ( 0.000000000000000000, 0.000000000000000000, 1.000000000000000000 ) ) ;
#75 = DIRECTION ( 'NONE',  ( 0.000000000000000000, 0.000000000000000000, -1.000000000000000000 ) ) ;
#76 = FACE_OUTER_BOUND ( 'NONE', #22, .T. ) ;
#77 = VECTOR ( 'NONE', #372, 39.37007874015748143 ) ;
#78 = CARTESIAN_POINT ( 'NONE',  ( 0.000000000000000000, 0.6250000000000000000, -0.05999999999999999084 ) ) ;
#79 = ORIENTED_EDGE ( 'NONE', *, *, #273, .F. ) ;
#80 = LINE ( 'NONE', #24, #32 ) ;
#81 = ORIENTED_EDGE ( 'NONE', *, *, #349, .T. ) ;
#82 = ADVANCED_FACE ( 'NONE', ( #5 ), #258, .T. ) ;
#83 = PLANE ( 'NONE',  #371 ) ;
#84 = ORIENTED_EDGE ( 'NONE', *, *, #159, .F. ) ;
#85 = APPROVAL ( #290, 'UNSPECIFIED' ) ;
#86 = PLANE ( 'NONE',  #385 ) ;
#87 = VECTOR ( 'NONE', #121, 39.37007874015748143 ) ;
#88 = EDGE_LOOP ( 'NONE', ( #162, #91, #34, #242, #319 ) ) ;
#89 = ADVANCED_FACE ( 'NONE', ( #72 ), #200, .F. ) ;
#90 = DIRECTION ( 'NONE',  ( 0.000000000000000000, 1.000000000000000000, 0.000000000000000000 ) ) ;
#91 = ORIENTED_EDGE ( 'NONE', *, *, #14, .T. ) ;
#92 = APPROVAL_STATUS ( 'not_yet_approved' ) ;
#93 = EDGE_LOOP ( 'NONE', ( #35, #338, #396, #51, #54 ) ) ;
#94 = PERSON_AND_ORGANIZATION_ROLE ( 'classification_officer' ) ;
#95 = DIRECTION ( 'NONE',  ( -0.000000000000000000, -0.7071067811865442421, -0.7071067811865507924 ) ) ;
#96 = VECTOR ( 'NONE', #337, 39.37007874015748143 ) ;
#97 = PERSON_AND_ORGANIZATION ( #231, #221 ) ;
#98 = CARTESIAN_POINT ( 'NONE',  ( 0.000000000000000000, 0.5650000000000006128, -0.1199999999999999817 ) ) ;
#99 = EDGE_CURVE ( 'NONE', #373, #353, #259, .T. ) ;
#100 = SECURITY_CLASSIFICATION_LEVEL ( 'unclassified' ) ;
#101 = ORIENTED_EDGE ( 'NONE', *, *, #199, .T. ) ;
#102 = PERSON_AND_ORGANIZATION_ROLE ( 'creator' ) ;
#103 = DIRECTION ( 'NONE',  ( 1.000000000000000000, 0.000000000000000000, 0.000000000000000000 ) ) ;
#104 = ADVANCED_BREP_SHAPE_REPRESENTATION ( 'J158', ( #294, #324 ), #195 ) ;
#105 = VECTOR ( 'NONE', #386, 39.37007874015748143 ) ;
#106 = CARTESIAN_POINT ( 'NONE',  ( 0.000000000000000000, 0.000000000000000000, -0.1199999999999999956 ) ) ;
#107 = PRODUCT_DEFINITION_SHAPE ( 'NONE', 'NONE',  #191 ) ;
#108 = CARTESIAN_POINT ( 'NONE',  ( 0.7500000000000002220, 0.000000000000000000, -0.1199999999999999956 ) ) ;
#109 = DIRECTION ( 'NONE',  ( 0.000000000000000000, -0.000000000000000000, -1.000000000000000000 ) ) ;
#110 = VECTOR ( 'NONE', #243, 39.37007874015748143 ) ;
#111 = CARTESIAN_POINT ( 'NONE',  ( 0.000000000000000000, 0.6250000000000000000, 0.000000000000000000 ) ) ;
#112 = DIRECTION ( 'NONE',  ( 0.000000000000000000, -1.000000000000000000, 0.000000000000000000 ) ) ;
#113 = CARTESIAN_POINT ( 'NONE',  ( 1.250000000000000000, 0.1249999999999985983, -0.1199999999999999956 ) ) ;
#114 = VECTOR ( 'NONE', #365, 39.37007874015748143 ) ;
#115 = CARTESIAN_POINT ( 'NONE',  ( 0.000000000000000000, 0.5650000000000006128, -0.1199999999999999817 ) ) ;
#116 = LOCAL_TIME ( 10, 23, 26.00000000000000000, #58 ) ;
#117 = ORIENTED_EDGE ( 'NONE', *, *, #99, .T. ) ;
#118 = CARTESIAN_POINT ( 'NONE',  ( 0.000000000000000000, 0.000000000000000000, -0.1199999999999999956 ) ) ;
#119 = ORIENTED_EDGE ( 'NONE', *, *, #205, .F. ) ;
#120 = APPROVAL ( #158, 'UNSPECIFIED' ) ;
#121 = DIRECTION ( 'NONE',  ( 1.000000000000000000, -0.000000000000000000, -0.000000000000000000 ) ) ;
#122 = APPLICATION_CONTEXT ( 'configuration controlled 3d designs of mechanical parts and assemblies' ) ;
#123 = VECTOR ( 'NONE', #364, 39.37007874015748143 ) ;
#124 = ORIENTED_EDGE ( 'NONE', *, *, #23, .T. ) ;
#125 = ORIENTED_EDGE ( 'NONE', *, *, #199, .F. ) ;
#126 = DATE_AND_TIME ( #1, #68 ) ;
#127 = ORIENTED_EDGE ( 'NONE', *, *, #99, .F. ) ;
#128 = LINE ( 'NONE', #405, #359 ) ;
#129 = VECTOR ( 'NONE', #380, 39.37007874015748143 ) ;
#130 = ADVANCED_FACE ( 'NONE', ( #76 ), #172, .T. ) ;
#131 = CC_DESIGN_APPROVAL ( #40, ( #27 ) ) ;
#132 = CC_DESIGN_SECURITY_CLASSIFICATION ( #52, ( #27 ) ) ;
#133 = PERSON_AND_ORGANIZATION ( #231, #221 ) ;
#134 = LINE ( 'NONE', #256, #73 ) ;
#135 = CC_DESIGN_DATE_AND_TIME_ASSIGNMENT ( #33, #165, ( #52 ) ) ;
#136 = LINE ( 'NONE', #188, #229 ) ;
#137 = ORIENTED_EDGE ( 'NONE', *, *, #202, .F. ) ;
#138 = VECTOR ( 'NONE', #271, 39.37007874015748143 ) ;
#139 = LINE ( 'NONE', #388, #253 ) ;
#140 = ADVANCED_FACE ( 'NONE', ( #297 ), #11, .T. ) ;
#141 = DIRECTION ( 'NONE',  ( 0.000000000000000000, 0.000000000000000000, 1.000000000000000000 ) ) ;
#142 = DIMENSIONAL_EXPONENTS ( 1.000000000000000000, 0.000000000000000000, 0.000000000000000000, 0.000000000000000000, 0.000000000000000000, 0.000000000000000000, 0.000000000000000000 ) ;
#143 = DIRECTION ( 'NONE',  ( 0.000000000000000000, 0.000000000000000000, -1.000000000000000000 ) ) ;
#144 = EDGE_CURVE ( 'NONE', #325, #226, #329, .T. ) ;
#145 = VECTOR ( 'NONE', #358, 39.37007874015748143 ) ;
#146 = DIRECTION ( 'NONE',  ( -0.000000000000000000, -0.000000000000000000, 1.000000000000000000 ) ) ;
#147 = FACE_OUTER_BOUND ( 'NONE', #148, .T. ) ;
#148 = EDGE_LOOP ( 'NONE', ( #244, #269, #84, #302 ) ) ;
#149 = LINE ( 'NONE', #179, #169 ) ;
#150 = VERTEX_POINT ( 'NONE', #230 ) ;
#151 = DIRECTION ( 'NONE',  ( -0.000000000000000000, 1.000000000000000000, -0.000000000000000000 ) ) ;
#152 = ADVANCED_FACE ( 'NONE', ( #391 ), #357, .F. ) ;
#153 = ORIENTED_EDGE ( 'NONE', *, *, #303, .T. ) ;
#154 = CARTESIAN_POINT ( 'NONE',  ( 0.7500000000000002220, 0.000000000000000000, 0.000000000000000000 ) ) ;
#155 = ORIENTED_EDGE ( 'NONE', *, *, #10, .F. ) ;
#156 = CALENDAR_DATE ( 2022, 27, 4 ) ;
#157 = ORIENTED_EDGE ( 'NONE', *, *, #23, .F. ) ;
#158 = APPROVAL_STATUS ( 'not_yet_approved' ) ;
#159 = EDGE_CURVE ( 'NONE', #367, #150, #43, .T. ) ;
#160 = FACE_OUTER_BOUND ( 'NONE', #278, .T. ) ;
#161 = DATE_AND_TIME ( #350, #207 ) ;
#162 = ORIENTED_EDGE ( 'NONE', *, *, #62, .T. ) ;
#163 = VECTOR ( 'NONE', #389, 39.37007874015748143 ) ;
#164 = EDGE_CURVE ( 'NONE', #275, #399, #9, .T. ) ;
#165 = DATE_TIME_ROLE ( 'classification_date' ) ;
#166 = CARTESIAN_POINT ( 'NONE',  ( 2.000000000000000000, 0.000000000000000000, 0.000000000000000000 ) ) ;
#167 = ORIENTED_EDGE ( 'NONE', *, *, #265, .F. ) ;
#168 = CARTESIAN_POINT ( 'NONE',  ( 0.000000000000000000, 0.000000000000000000, -0.1199999999999999956 ) ) ;
#169 = VECTOR ( 'NONE', #46, 39.37007874015748143 ) ;
#170 = DIRECTION ( 'NONE',  ( 0.000000000000000000, 1.000000000000000000, 0.000000000000000000 ) ) ;
#171 = SHAPE_DEFINITION_REPRESENTATION ( #107, #104 ) ;
#172 = PLANE ( 'NONE',  #18 ) ;
#173 = ADVANCED_FACE ( 'NONE', ( #261 ), #300, .F. ) ;
#174 = PRODUCT ( 'J158', 'J158', '', ( #257 ) ) ;
#175 = CARTESIAN_POINT ( 'NONE',  ( 0.7499999999999998890, 0.1250000000000000278, -0.1199999999999999956 ) ) ;
#176 = ADVANCED_FACE ( 'NONE', ( #295 ), #328, .T. ) ;
#177 = VECTOR ( 'NONE', #8, 39.37007874015748143 ) ;
#178 = CARTESIAN_POINT ( 'NONE',  ( 0.000000000000000000, 0.6250000000000000000, -0.05999999999999999084 ) ) ;
#179 = CARTESIAN_POINT ( 'NONE',  ( 0.7499999999999998890, 0.1250000000000000278, -0.1199999999999999956 ) ) ;
#180 = VERTEX_POINT ( 'NONE', #204 ) ;
#181 = CARTESIAN_POINT ( 'NONE',  ( 2.000000000000000000, 0.000000000000000000, 0.000000000000000000 ) ) ;
#182 = ORIENTED_EDGE ( 'NONE', *, *, #233, .T. ) ;
#183 = DIRECTION ( 'NONE',  ( 0.000000000000000000, 0.7071067811865433539, -0.7071067811865516806 ) ) ;
#184 = ORIENTED_EDGE ( 'NONE', *, *, #56, .F. ) ;
#185 = DIRECTION ( 'NONE',  ( 0.000000000000000000, -0.7071067811865516806, -0.7071067811865433539 ) ) ;
#186 = ORIENTED_EDGE ( 'NONE', *, *, #215, .T. ) ;
#187 = AXIS2_PLACEMENT_3D ( 'NONE', #106, #112, #198 ) ;
#188 = CARTESIAN_POINT ( 'NONE',  ( 0.000000000000000000, 0.5650000000000006128, -0.1199999999999999817 ) ) ;
#189 = PERSON_AND_ORGANIZATION ( #231, #221 ) ;
#190 = ORIENTED_EDGE ( 'NONE', *, *, #289, .F. ) ;
#191 = PRODUCT_DEFINITION ( 'UNKNOWN', '', #27, #361 ) ;
#192 = CARTESIAN_POINT ( 'NONE',  ( 0.000000000000000000, 0.000000000000000000, -0.1199999999999999956 ) ) ;
#193 = CARTESIAN_POINT ( 'NONE',  ( 0.000000000000000000, 0.000000000000000000, 0.000000000000000000 ) ) ;
#194 = LINE ( 'NONE', #192, #355 ) ;
#195 =( GEOMETRIC_REPRESENTATION_CONTEXT ( 3 ) GLOBAL_UNCERTAINTY_ASSIGNED_CONTEXT ( ( #331 ) ) GLOBAL_UNIT_ASSIGNED_CONTEXT ( ( #376, #320, #4 ) ) REPRESENTATION_CONTEXT ( 'NONE', 'WORKASPACE' ) );
#196 = DATE_AND_TIME ( #156, #20 ) ;
#197 = ORIENTED_EDGE ( 'NONE', *, *, #144, .F. ) ;
#198 = DIRECTION ( 'NONE',  ( 0.000000000000000000, -0.000000000000000000, -1.000000000000000000 ) ) ;
#199 = EDGE_CURVE ( 'NONE', #401, #180, #293, .T. ) ;
#200 = PLANE ( 'NONE',  #279 ) ;
#201 = VECTOR ( 'NONE', #239, 39.37007874015748143 ) ;
#202 = EDGE_CURVE ( 'NONE', #180, #213, #139, .T. ) ;
#203 = DIRECTION ( 'NONE',  ( 1.000000000000000000, 0.000000000000000000, 0.000000000000000000 ) ) ;
#204 = CARTESIAN_POINT ( 'NONE',  ( 2.000000000000000000, 0.000000000000000000, -0.1199999999999999956 ) ) ;
#205 = EDGE_CURVE ( 'NONE', #6, #285, #41, .T. ) ;
#206 = CARTESIAN_POINT ( 'NONE',  ( 2.000000000000000000, 0.000000000000000000, -0.1199999999999999956 ) ) ;
#207 = LOCAL_TIME ( 10, 23, 26.00000000000000000, #280 ) ;
#208 = PLANE ( 'NONE',  #315 ) ;
#209 = ORIENTED_EDGE ( 'NONE', *, *, #164, .F. ) ;
#210 = CARTESIAN_POINT ( 'NONE',  ( 0.000000000000000000, 0.5650000000000007239, 0.000000000000000000 ) ) ;
#211 = ORIENTED_EDGE ( 'NONE', *, *, #289, .T. ) ;
#212 = CARTESIAN_POINT ( 'NONE',  ( 2.000000000000000000, 0.5650000000000007239, 0.000000000000000000 ) ) ;
#213 = VERTEX_POINT ( 'NONE', #232 ) ;
#214 = VECTOR ( 'NONE', #21, 39.37007874015748143 ) ;
#215 = EDGE_CURVE ( 'NONE', #367, #226, #39, .T. ) ;
#216 = CARTESIAN_POINT ( 'NONE',  ( 0.000000000000000000, 0.5650000000000006128, 0.000000000000000000 ) ) ;
#217 = ORIENTED_EDGE ( 'NONE', *, *, #378, .T. ) ;
#218 = LINE ( 'NONE', #210, #87 ) ;
#219 = DIRECTION ( 'NONE',  ( 1.000000000000000000, 0.000000000000000000, 0.000000000000000000 ) ) ;
#220 = PLANE ( 'NONE',  #305 ) ;
#221 = ORGANIZATION ( 'UNSPECIFIED', 'UNSPECIFIED', '' ) ;
#222 = ORIENTED_EDGE ( 'NONE', *, *, #56, .T. ) ;
#223 = APPROVAL_ROLE ( '' ) ;
#224 = ORIENTED_EDGE ( 'NONE', *, *, #362, .F. ) ;
#225 = COORDINATED_UNIVERSAL_TIME_OFFSET ( 6, 0, .BEHIND. ) ;
#226 = VERTEX_POINT ( 'NONE', #267 ) ;
#227 = PERSON_AND_ORGANIZATION ( #231, #221 ) ;
#228 = DIRECTION ( 'NONE',  ( -1.000000000000000000, 0.000000000000000000, 0.000000000000000000 ) ) ;
#229 = VECTOR ( 'NONE', #317, 39.37007874015748143 ) ;
#230 = CARTESIAN_POINT ( 'NONE',  ( 0.000000000000000000, 0.6250000000000000000, -0.05999999999999999084 ) ) ;
#231 = PERSON ( 'UNSPECIFIED', 'UNSPECIFIED', 'UNSPECIFIED', ('UNSPECIFIED'), ('UNSPECIFIED'), ('UNSPECIFIED') ) ;
#232 = CARTESIAN_POINT ( 'NONE',  ( 2.000000000000000000, 0.5650000000000006128, -0.1199999999999999817 ) ) ;
#233 = EDGE_CURVE ( 'NONE', #180, #25, #262, .T. ) ;
#234 = CARTESIAN_POINT ( 'NONE',  ( 0.000000000000000000, 0.000000000000000000, 0.000000000000000000 ) ) ;
#235 = AXIS2_PLACEMENT_3D ( 'NONE', #384, #228, #356 ) ;
#236 = PRODUCT_RELATED_PRODUCT_CATEGORY ( 'detail', '', ( #174 ) ) ;
#237 = CARTESIAN_POINT ( 'NONE',  ( 1.250000000000000000, 0.1249999999999985983, -0.1199999999999999956 ) ) ;
#238 = APPROVAL_DATE_TIME ( #196, #85 ) ;
#239 = DIRECTION ( 'NONE',  ( -0.000000000000000000, 0.7071067811865433539, -0.7071067811865516806 ) ) ;
#240 = LINE ( 'NONE', #310, #114 ) ;
#241 = CARTESIAN_POINT ( 'NONE',  ( 0.7499999999999998890, 0.1250000000000000278, 0.000000000000000000 ) ) ;
#242 = ORIENTED_EDGE ( 'NONE', *, *, #215, .F. ) ;
#243 = DIRECTION ( 'NONE',  ( 1.000000000000000000, 0.000000000000000000, 0.000000000000000000 ) ) ;
#244 = ORIENTED_EDGE ( 'NONE', *, *, #66, .T. ) ;
#245 = CARTESIAN_POINT ( 'NONE',  ( 1.250000000000000000, 0.1249999999999985983, -0.1199999999999999956 ) ) ;
#246 = CC_DESIGN_APPROVAL ( #120, ( #191 ) ) ;
#247 = CC_DESIGN_DATE_AND_TIME_ASSIGNMENT ( #126, #374, ( #191 ) ) ;
#248 = DIRECTION ( 'NONE',  ( 0.000000000000000000, -0.7071067811865442421, -0.7071067811865507924 ) ) ;
#249 = APPROVAL_PERSON_ORGANIZATION ( #227, #85, #354 ) ;
#250 = EDGE_LOOP ( 'NONE', ( #351, #155, #340, #81 ) ) ;
#251 = PERSON_AND_ORGANIZATION ( #231, #221 ) ;
#252 = ORIENTED_EDGE ( 'NONE', *, *, #311, .T. ) ;
#253 = VECTOR ( 'NONE', #170, 39.37007874015748143 ) ;
#254 = CARTESIAN_POINT ( 'NONE',  ( 2.000000000000000000, 0.6250000000000000000, -0.05999999999999999084 ) ) ;
#255 = CALENDAR_DATE ( 2022, 27, 4 ) ;
#256 = CARTESIAN_POINT ( 'NONE',  ( 0.000000000000000000, 0.5650000000000006128, -0.1199999999999999817 ) ) ;
#257 = MECHANICAL_CONTEXT ( 'NONE', #397, 'mechanical' ) ;
#258 = PLANE ( 'NONE',  #235 ) ;
#259 = LINE ( 'NONE', #392, #105 ) ;
#260 = APPROVAL_PERSON_ORGANIZATION ( #133, #40, #26 ) ;
#261 = FACE_OUTER_BOUND ( 'NONE', #377, .T. ) ;
#262 = LINE ( 'NONE', #206, #163 ) ;
#263 = CC_DESIGN_PERSON_AND_ORGANIZATION_ASSIGNMENT ( #97, #382, ( #174 ) ) ;
#264 = CARTESIAN_POINT ( 'NONE',  ( 0.000000000000000000, 0.000000000000000000, -0.1199999999999999956 ) ) ;
#265 = EDGE_CURVE ( 'NONE', #369, #6, #287, .T. ) ;
#266 = AXIS2_PLACEMENT_3D ( 'NONE', #298, #75, #36 ) ;
#267 = CARTESIAN_POINT ( 'NONE',  ( 0.000000000000000000, 0.000000000000000000, 0.000000000000000000 ) ) ;
#268 = CARTESIAN_POINT ( 'NONE',  ( 1.250000000000000000, 0.1249999999999985983, 0.000000000000000000 ) ) ;
#269 = ORIENTED_EDGE ( 'NONE', *, *, #349, .F. ) ;
#270 = CIRCLE ( 'NONE', #42, 0.2500000000000000555 ) ;
#271 = DIRECTION ( 'NONE',  ( -0.000000000000000000, -0.000000000000000000, 1.000000000000000000 ) ) ;
#272 = ORIENTED_EDGE ( 'NONE', *, *, #387, .T. ) ;
#273 = EDGE_CURVE ( 'NONE', #226, #399, #304, .T. ) ;
#274 = CARTESIAN_POINT ( 'NONE',  ( 2.000000000000000000, 0.6250000000000000000, -0.05999999999999999084 ) ) ;
#275 = VERTEX_POINT ( 'NONE', #339 ) ;
#276 = ADVANCED_FACE ( 'NONE', ( #394 ), #83, .F. ) ;
#277 = CARTESIAN_POINT ( 'NONE',  ( 1.250000000000000000, 0.000000000000000000, -0.1199999999999999956 ) ) ;
#278 = EDGE_LOOP ( 'NONE', ( #222, #209, #404, #292 ) ) ;
#279 = AXIS2_PLACEMENT_3D ( 'NONE', #111, #143, #333 ) ;
#280 = COORDINATED_UNIVERSAL_TIME_OFFSET ( 6, 0, .BEHIND. ) ;
#281 = ORIENTED_EDGE ( 'NONE', *, *, #14, .F. ) ;
#282 = PERSON_AND_ORGANIZATION_ROLE ( 'creator' ) ;
#283 = DIRECTION ( 'NONE',  ( 0.000000000000000000, 0.000000000000000000, 1.000000000000000000 ) ) ;
#284 = APPLICATION_PROTOCOL_DEFINITION ( 'international standard', 'config_control_design', 1994, #122 ) ;
#285 = VERTEX_POINT ( 'NONE', #241 ) ;
#286 = APPROVAL_DATE_TIME ( #161, #120 ) ;
#287 = CIRCLE ( 'NONE', #402, 0.2500000000000000555 ) ;
#288 = CARTESIAN_POINT ( 'NONE',  ( 1.000000000000000000, 0.1250000000000000278, 0.000000000000000000 ) ) ;
#289 = EDGE_CURVE ( 'NONE', #325, #275, #17, .T. ) ;
#290 = APPROVAL_STATUS ( 'not_yet_approved' ) ;
#291 = CARTESIAN_POINT ( 'NONE',  ( 2.000000000000000000, 0.5650000000000006128, -0.1199999999999999817 ) ) ;
#292 = ORIENTED_EDGE ( 'NONE', *, *, #205, .T. ) ;
#293 = LINE ( 'NONE', #13, #177 ) ;
#294 = MANIFOLD_SOLID_BREP ( 'Cut-Extrude2', #37 ) ;
#295 = FACE_OUTER_BOUND ( 'NONE', #31, .T. ) ;
#296 = EDGE_CURVE ( 'NONE', #401, #373, #240, .T. ) ;
#297 = FACE_OUTER_BOUND ( 'NONE', #16, .T. ) ;
#298 = CARTESIAN_POINT ( 'NONE',  ( 0.000000000000000000, 0.6250000000000000000, -0.1199999999999999956 ) ) ;
#299 = VECTOR ( 'NONE', #95, 39.37007874015748143 ) ;
#300 = CYLINDRICAL_SURFACE ( 'NONE', #330, 0.2500000000000000555 ) ;
#301 = DIRECTION ( 'NONE',  ( 0.000000000000000000, 0.000000000000000000, -1.000000000000000000 ) ) ;
#302 = ORIENTED_EDGE ( 'NONE', *, *, #362, .T. ) ;
#303 = EDGE_CURVE ( 'NONE', #25, #314, #366, .T. ) ;
#304 = LINE ( 'NONE', #55, #110 ) ;
#305 = AXIS2_PLACEMENT_3D ( 'NONE', #346, #348, #67 ) ;
#306 = CC_DESIGN_APPROVAL ( #85, ( #52 ) ) ;
#307 = CARTESIAN_POINT ( 'NONE',  ( 0.000000000000000000, 0.000000000000000000, 0.000000000000000000 ) ) ;
#308 = CC_DESIGN_PERSON_AND_ORGANIZATION_ASSIGNMENT ( #251, #94, ( #52 ) ) ;
#309 = ORIENTED_EDGE ( 'NONE', *, *, #273, .T. ) ;
#310 = CARTESIAN_POINT ( 'NONE',  ( 1.250000000000000000, 0.000000000000000000, -0.1199999999999999956 ) ) ;
#311 = EDGE_CURVE ( 'NONE', #373, #25, #398, .T. ) ;
#312 = ORIENTED_EDGE ( 'NONE', *, *, #10, .T. ) ;
#313 = CARTESIAN_POINT ( 'NONE',  ( 0.000000000000000000, 0.000000000000000000, -0.1199999999999999956 ) ) ;
#314 = VERTEX_POINT ( 'NONE', #212 ) ;
#315 = AXIS2_PLACEMENT_3D ( 'NONE', #78, #185, #183 ) ;
#316 = COORDINATED_UNIVERSAL_TIME_OFFSET ( 6, 0, .BEHIND. ) ;
#317 = DIRECTION ( 'NONE',  ( 1.000000000000000000, -0.000000000000000000, -0.000000000000000000 ) ) ;
#318 = ADVANCED_FACE ( 'NONE', ( #147 ), #208, .F. ) ;
#319 = ORIENTED_EDGE ( 'NONE', *, *, #159, .T. ) ;
#320 =( NAMED_UNIT ( * ) PLANE_ANGLE_UNIT ( ) SI_UNIT ( $, .RADIAN. ) );
#321 = EDGE_CURVE ( 'NONE', #401, #369, #80, .T. ) ;
#322 = ORIENTED_EDGE ( 'NONE', *, *, #321, .T. ) ;
#323 = DIRECTION ( 'NONE',  ( 0.000000000000000000, 0.000000000000000000, 1.000000000000000000 ) ) ;
#324 = AXIS2_PLACEMENT_3D ( 'NONE', #193, #323, #219 ) ;
#325 = VERTEX_POINT ( 'NONE', #313 ) ;
#326 = CC_DESIGN_PERSON_AND_ORGANIZATION_ASSIGNMENT ( #65, #403, ( #27 ) ) ;
#327 = ORIENTED_EDGE ( 'NONE', *, *, #265, .T. ) ;
#328 = PLANE ( 'NONE',  #266 ) ;
#329 = LINE ( 'NONE', #264, #7 ) ;
#330 = AXIS2_PLACEMENT_3D ( 'NONE', #332, #71, #363 ) ;
#331 = UNCERTAINTY_MEASURE_WITH_UNIT (LENGTH_MEASURE( 1.000000000000000082E-05 ), #376, 'distance_accuracy_value', 'NONE');
#332 = CARTESIAN_POINT ( 'NONE',  ( 1.000000000000000000, 0.1250000000000000278, -0.1199999999999999956 ) ) ;
#333 = DIRECTION ( 'NONE',  ( -1.000000000000000000, 0.000000000000000000, -0.000000000000000000 ) ) ;
#334 = DIRECTION ( 'NONE',  ( 0.000000000000000000, -1.000000000000000000, 0.000000000000000000 ) ) ;
#335 = APPROVAL_PERSON_ORGANIZATION ( #63, #120, #223 ) ;
#336 = LOCAL_TIME ( 10, 23, 26.00000000000000000, #225 ) ;
#337 = DIRECTION ( 'NONE',  ( 1.000000000000000000, -0.000000000000000000, -0.000000000000000000 ) ) ;
#338 = ORIENTED_EDGE ( 'NONE', *, *, #66, .F. ) ;
#339 = CARTESIAN_POINT ( 'NONE',  ( 0.7500000000000002220, 0.000000000000000000, -0.1199999999999999956 ) ) ;
#340 = ORIENTED_EDGE ( 'NONE', *, *, #62, .F. ) ;
#341 = LINE ( 'NONE', #44, #96 ) ;
#342 = ORIENTED_EDGE ( 'NONE', *, *, #164, .T. ) ;
#343 = CARTESIAN_POINT ( 'NONE',  ( 2.000000000000000000, 0.000000000000000000, -0.1199999999999999956 ) ) ;
#344 = VERTEX_POINT ( 'NONE', #274 ) ;
#345 = PERSON_AND_ORGANIZATION ( #231, #221 ) ;
#346 = CARTESIAN_POINT ( 'NONE',  ( 0.7499999999999998890, 0.1250000000000000278, -0.1199999999999999956 ) ) ;
#347 = VECTOR ( 'NONE', #90, 39.37007874015748143 ) ;
#348 = DIRECTION ( 'NONE',  ( -1.000000000000000000, -2.185478394931410180E-15, 0.000000000000000000 ) ) ;
#349 = EDGE_CURVE ( 'NONE', #150, #344, #341, .T. ) ;
#350 = CALENDAR_DATE ( 2022, 27, 4 ) ;
#351 = ORIENTED_EDGE ( 'NONE', *, *, #48, .T. ) ;
#352 = CALENDAR_DATE ( 2022, 27, 4 ) ;
#353 = VERTEX_POINT ( 'NONE', #268 ) ;
#354 = APPROVAL_ROLE ( '' ) ;
#355 = VECTOR ( 'NONE', #29, 39.37007874015748143 ) ;
#356 = DIRECTION ( 'NONE',  ( 0.000000000000000000, 0.000000000000000000, 1.000000000000000000 ) ) ;
#357 = PLANE ( 'NONE',  #379 ) ;
#358 = DIRECTION ( 'NONE',  ( -0.000000000000000000, -1.000000000000000000, -0.000000000000000000 ) ) ;
#359 = VECTOR ( 'NONE', #2, 39.37007874015748143 ) ;
#360 = CARTESIAN_POINT ( 'NONE',  ( 1.000000000000000000, 0.1250000000000000278, -0.1199999999999999956 ) ) ;
#361 = DESIGN_CONTEXT ( 'detailed design', #122, 'design' ) ;
#362 = EDGE_CURVE ( 'NONE', #367, #314, #218, .T. ) ;
#363 = DIRECTION ( 'NONE',  ( 1.000000000000000000, 0.000000000000000000, 0.000000000000000000 ) ) ;
#364 = DIRECTION ( 'NONE',  ( -0.000000000000000000, -0.000000000000000000, 1.000000000000000000 ) ) ;
#365 = DIRECTION ( 'NONE',  ( -0.000000000000000000, -0.000000000000000000, 1.000000000000000000 ) ) ;
#366 = LINE ( 'NONE', #181, #347 ) ;
#367 = VERTEX_POINT ( 'NONE', #216 ) ;
#368 = DIRECTION ( 'NONE',  ( 0.000000000000000000, -0.7071067811865507924, 0.7071067811865442421 ) ) ;
#369 = VERTEX_POINT ( 'NONE', #245 ) ;
#370 = LINE ( 'NONE', #113, #138 ) ;
#371 = AXIS2_PLACEMENT_3D ( 'NONE', #115, #368, #248 ) ;
#372 = DIRECTION ( 'NONE',  ( 1.000000000000000000, 0.000000000000000000, 0.000000000000000000 ) ) ;
#373 = VERTEX_POINT ( 'NONE', #393 ) ;
#374 = DATE_TIME_ROLE ( 'creation_date' ) ;
#375 = EDGE_LOOP ( 'NONE', ( #157, #127, #252, #153, #224, #186, #309, #184 ) ) ;
#376 =( CONVERSION_BASED_UNIT ( 'INCH', #395 ) LENGTH_UNIT ( ) NAMED_UNIT ( #142 ) );
#377 = EDGE_LOOP ( 'NONE', ( #124, #119, #167, #272 ) ) ;
#378 = EDGE_CURVE ( 'NONE', #6, #275, #149, .T. ) ;
#379 = AXIS2_PLACEMENT_3D ( 'NONE', #237, #15, #38 ) ;
#380 = DIRECTION ( 'NONE',  ( -0.000000000000000000, 0.7071067811865433539, -0.7071067811865516806 ) ) ;
#381 = CC_DESIGN_PERSON_AND_ORGANIZATION_ASSIGNMENT ( #345, #102, ( #191 ) ) ;
#382 = PERSON_AND_ORGANIZATION_ROLE ( 'design_owner' ) ;
#383 = LINE ( 'NONE', #254, #129 ) ;
#384 = CARTESIAN_POINT ( 'NONE',  ( 0.000000000000000000, 0.000000000000000000, -0.1199999999999999956 ) ) ;
#385 = AXIS2_PLACEMENT_3D ( 'NONE', #343, #53, #301 ) ;
#386 = DIRECTION ( 'NONE',  ( -0.000000000000000000, 1.000000000000000000, -0.000000000000000000 ) ) ;
#387 = EDGE_CURVE ( 'NONE', #369, #353, #370, .T. ) ;
#388 = CARTESIAN_POINT ( 'NONE',  ( 2.000000000000000000, 0.000000000000000000, -0.1199999999999999956 ) ) ;
#389 = DIRECTION ( 'NONE',  ( 0.000000000000000000, 0.000000000000000000, 1.000000000000000000 ) ) ;
#390 = ADVANCED_FACE ( 'NONE', ( #49 ), #86, .T. ) ;
#391 = FACE_OUTER_BOUND ( 'NONE', #407, .T. ) ;
#392 = CARTESIAN_POINT ( 'NONE',  ( 1.250000000000000000, 0.1249999999999985983, 0.000000000000000000 ) ) ;
#393 = CARTESIAN_POINT ( 'NONE',  ( 1.250000000000000000, 0.000000000000000000, 0.000000000000000000 ) ) ;
#394 = FACE_OUTER_BOUND ( 'NONE', #250, .T. ) ;
#395 = LENGTH_MEASURE_WITH_UNIT ( LENGTH_MEASURE( 0.02539999999999999897 ), #400 );
#396 = ORIENTED_EDGE ( 'NONE', *, *, #303, .F. ) ;
#397 = APPLICATION_CONTEXT ( 'configuration controlled 3d designs of mechanical parts and assemblies' ) ;
#398 = LINE ( 'NONE', #307, #214 ) ;
#399 = VERTEX_POINT ( 'NONE', #154 ) ;
#400 =( LENGTH_UNIT ( ) NAMED_UNIT ( * ) SI_UNIT ( $, .METRE. ) );
#401 = VERTEX_POINT ( 'NONE', #277 ) ;
#402 = AXIS2_PLACEMENT_3D ( 'NONE', #360, #74, #203 ) ;
#403 = PERSON_AND_ORGANIZATION_ROLE ( 'design_supplier' ) ;
#404 = ORIENTED_EDGE ( 'NONE', *, *, #378, .F. ) ;
#405 = CARTESIAN_POINT ( 'NONE',  ( 0.7499999999999998890, 0.1250000000000000278, 0.000000000000000000 ) ) ;
#406 = APPROVAL_DATE_TIME ( #28, #40 ) ;
#407 = EDGE_LOOP ( 'NONE', ( #117, #19, #45, #57 ) ) ;
ENDSEC;
END-ISO-10303-21;
