ISO-10303-21;
HEADER;
FILE_DESCRIPTION (( 'STEP AP203' ),
    '1' );
FILE_NAME ('797SMALLWICK.STEP',
    '2022-04-20T19:49:23',
    ( '' ),
    ( '' ),
    'SwSTEP 2.0',
    'SolidWorks 2020',
    '' );
FILE_SCHEMA (( 'CONFIG_CONTROL_DESIGN' ));
ENDSEC;

DATA;
#1 = FACE_OUTER_BOUND ( 'NONE', #134, .T. ) ;
#2 = CARTESIAN_POINT ( 'NONE',  ( 0.9064999999999999725, 0.6875000000000000000, 0.000000000000000000 ) ) ;
#3 = DATE_AND_TIME ( #139, #208 ) ;
#4 = PRODUCT ( '797SMALLWICK', '797SMALLWICK', '', ( #202 ) ) ;
#5 = ORIENTED_EDGE ( 'NONE', *, *, #270, .T. ) ;
#6 = AXIS2_PLACEMENT_3D ( 'NONE', #123, #103, #125 ) ;
#7 = DATE_AND_TIME ( #60, #242 ) ;
#8 = VERTEX_POINT ( 'NONE', #205 ) ;
#9 = PERSON_AND_ORGANIZATION_ROLE ( 'design_owner' ) ;
#10 = ORIENTED_EDGE ( 'NONE', *, *, #282, .F. ) ;
#11 = APPROVAL_ROLE ( '' ) ;
#12 = ORIENTED_EDGE ( 'NONE', *, *, #153, .F. ) ;
#13 = AXIS2_PLACEMENT_3D ( 'NONE', #247, #198, #104 ) ;
#14 = VERTEX_POINT ( 'NONE', #47 ) ;
#15 = EDGE_CURVE ( 'NONE', #286, #110, #74, .T. ) ;
#16 = FACE_OUTER_BOUND ( 'NONE', #85, .T. ) ;
#17 = CARTESIAN_POINT ( 'NONE',  ( 0.000000000000000000, 0.000000000000000000, -0.3750000000000000555 ) ) ;
#18 = AXIS2_PLACEMENT_3D ( 'NONE', #239, #265, #161 ) ;
#19 = FACE_OUTER_BOUND ( 'NONE', #234, .T. ) ;
#20 = VECTOR ( 'NONE', #188, 39.37007874015748143 ) ;
#21 = EDGE_CURVE ( 'NONE', #141, #64, #264, .T. ) ;
#22 = CARTESIAN_POINT ( 'NONE',  ( 0.9064999999999999725, 0.6875000000000000000, -0.2500000000000000000 ) ) ;
#23 = DIRECTION ( 'NONE',  ( 0.000000000000000000, 0.000000000000000000, 1.000000000000000000 ) ) ;
#24 = UNCERTAINTY_MEASURE_WITH_UNIT (LENGTH_MEASURE( 1.000000000000000082E-05 ), #31, 'distance_accuracy_value', 'NONE');
#25 = APPLICATION_CONTEXT ( 'configuration controlled 3d designs of mechanical parts and assemblies' ) ;
#26 = CYLINDRICAL_SURFACE ( 'NONE', #6, 0.09375000000000005551 ) ;
#27 = VECTOR ( 'NONE', #150, 39.37007874015748143 ) ;
#28 = VECTOR ( 'NONE', #290, 39.37007874015748143 ) ;
#29 = CC_DESIGN_PERSON_AND_ORGANIZATION_ASSIGNMENT ( #159, #109, ( #197 ) ) ;
#30 = CARTESIAN_POINT ( 'NONE',  ( 0.000000000000000000, 1.375000000000000000, 0.000000000000000000 ) ) ;
#31 =( CONVERSION_BASED_UNIT ( 'INCH', #320 ) LENGTH_UNIT ( ) NAMED_UNIT ( #252 ) );
#32 = CARTESIAN_POINT ( 'NONE',  ( 0.8127499999999999725, 0.6875000000000000000, -0.2500000000000000000 ) ) ;
#33 = CC_DESIGN_DATE_AND_TIME_ASSIGNMENT ( #156, #39, ( #197 ) ) ;
#34 = CARTESIAN_POINT ( 'NONE',  ( 0.000000000000000000, 0.000000000000000000, 0.000000000000000000 ) ) ;
#35 = ORIENTED_EDGE ( 'NONE', *, *, #53, .T. ) ;
#36 = APPROVAL_ROLE ( '' ) ;
#37 = ORIENTED_EDGE ( 'NONE', *, *, #97, .F. ) ;
#38 = VECTOR ( 'NONE', #243, 39.37007874015748143 ) ;
#39 = DATE_TIME_ROLE ( 'creation_date' ) ;
#40 = ORIENTED_EDGE ( 'NONE', *, *, #53, .F. ) ;
#41 = COORDINATED_UNIVERSAL_TIME_OFFSET ( 6, 0, .BEHIND. ) ;
#42 = ORIENTED_EDGE ( 'NONE', *, *, #209, .T. ) ;
#43 = ORIENTED_EDGE ( 'NONE', *, *, #162, .T. ) ;
#44 = ADVANCED_FACE ( 'NONE', ( #210, #145 ), #119, .F. ) ;
#45 = ADVANCED_BREP_SHAPE_REPRESENTATION ( '797SMALLWICK', ( #257, #124 ), #196 ) ;
#46 = DIRECTION ( 'NONE',  ( 0.000000000000000000, 0.000000000000000000, -1.000000000000000000 ) ) ;
#47 = CARTESIAN_POINT ( 'NONE',  ( 1.000250000000000083, 0.6875000000000000000, -0.2500000000000000000 ) ) ;
#48 = CARTESIAN_POINT ( 'NONE',  ( 1.000250000000000083, 0.6875000000000000000, 0.000000000000000000 ) ) ;
#49 = CYLINDRICAL_SURFACE ( 'NONE', #268, 0.09375000000000005551 ) ;
#50 = AXIS2_PLACEMENT_3D ( 'NONE', #244, #96, #189 ) ;
#51 = CARTESIAN_POINT ( 'NONE',  ( 0.9064999999999999725, 0.6875000000000000000, 0.000000000000000000 ) ) ;
#52 = CARTESIAN_POINT ( 'NONE',  ( 1.812999999999999945, 0.000000000000000000, -0.3750000000000000555 ) ) ;
#53 = EDGE_CURVE ( 'NONE', #8, #157, #310, .T. ) ;
#54 = DIRECTION ( 'NONE',  ( 0.000000000000000000, 0.000000000000000000, 1.000000000000000000 ) ) ;
#55 = CIRCLE ( 'NONE', #249, 0.09375000000000005551 ) ;
#56 = FACE_OUTER_BOUND ( 'NONE', #67, .T. ) ;
#57 = FACE_OUTER_BOUND ( 'NONE', #281, .T. ) ;
#58 = APPROVAL ( #180, 'UNSPECIFIED' ) ;
#59 = FACE_OUTER_BOUND ( 'NONE', #230, .T. ) ;
#60 = CALENDAR_DATE ( 2022, 20, 4 ) ;
#61 = ORIENTED_EDGE ( 'NONE', *, *, #97, .T. ) ;
#62 = COORDINATED_UNIVERSAL_TIME_OFFSET ( 6, 0, .BEHIND. ) ;
#63 = PRODUCT_DEFINITION_SHAPE ( 'NONE', 'NONE',  #197 ) ;
#64 = VERTEX_POINT ( 'NONE', #214 ) ;
#65 = PRODUCT_DEFINITION_FORMATION_WITH_SPECIFIED_SOURCE ( 'ANY', '', #4, .NOT_KNOWN. ) ;
#66 = PERSON_AND_ORGANIZATION ( #99, #152 ) ;
#67 = EDGE_LOOP ( 'NONE', ( #308, #309, #179, #253 ) ) ;
#68 = ORIENTED_EDGE ( 'NONE', *, *, #21, .T. ) ;
#69 = ORIENTED_EDGE ( 'NONE', *, *, #245, .F. ) ;
#70 = AXIS2_PLACEMENT_3D ( 'NONE', #147, #191, #187 ) ;
#71 = CC_DESIGN_APPROVAL ( #143, ( #218 ) ) ;
#72 = CARTESIAN_POINT ( 'NONE',  ( 0.000000000000000000, 0.000000000000000000, 0.000000000000000000 ) ) ;
#73 = DIRECTION ( 'NONE',  ( 0.000000000000000000, 0.000000000000000000, 1.000000000000000000 ) ) ;
#74 = LINE ( 'NONE', #17, #263 ) ;
#75 = CARTESIAN_POINT ( 'NONE',  ( 0.000000000000000000, 1.375000000000000000, -0.3750000000000000555 ) ) ;
#76 = AXIS2_PLACEMENT_3D ( 'NONE', #220, #250, #100 ) ;
#77 = CARTESIAN_POINT ( 'NONE',  ( 0.9064999999999999725, 0.6875000000000000000, -0.2500000000000000000 ) ) ;
#78 = DIRECTION ( 'NONE',  ( 0.000000000000000000, 0.000000000000000000, 1.000000000000000000 ) ) ;
#79 = DIRECTION ( 'NONE',  ( -1.000000000000000000, -0.000000000000000000, -0.000000000000000000 ) ) ;
#80 = AXIS2_PLACEMENT_3D ( 'NONE', #211, #46, #312 ) ;
#81 = CARTESIAN_POINT ( 'NONE',  ( 0.9064999999999999725, 0.6875000000000000000, -0.2500000000000000000 ) ) ;
#82 = PERSON_AND_ORGANIZATION_ROLE ( 'design_supplier' ) ;
#83 = CIRCLE ( 'NONE', #182, 0.09375000000000005551 ) ;
#84 = CC_DESIGN_PERSON_AND_ORGANIZATION_ASSIGNMENT ( #66, #260, ( #218 ) ) ;
#85 = EDGE_LOOP ( 'NONE', ( #304, #207, #108, #203 ) ) ;
#86 = CC_DESIGN_PERSON_AND_ORGANIZATION_ASSIGNMENT ( #178, #9, ( #4 ) ) ;
#87 = ORIENTED_EDGE ( 'NONE', *, *, #130, .F. ) ;
#88 = DIRECTION ( 'NONE',  ( 1.000000000000000000, 0.000000000000000000, 0.000000000000000000 ) ) ;
#89 = EDGE_LOOP ( 'NONE', ( #113, #40, #37, #285 ) ) ;
#90 = DATE_AND_TIME ( #283, #237 ) ;
#91 = ORIENTED_EDGE ( 'NONE', *, *, #282, .T. ) ;
#92 = ORIENTED_EDGE ( 'NONE', *, *, #261, .T. ) ;
#93 = LINE ( 'NONE', #313, #28 ) ;
#94 = LINE ( 'NONE', #315, #20 ) ;
#95 = DIRECTION ( 'NONE',  ( -1.000000000000000000, -0.000000000000000000, -0.000000000000000000 ) ) ;
#96 = DIRECTION ( 'NONE',  ( 0.000000000000000000, 1.000000000000000000, 0.000000000000000000 ) ) ;
#97 = EDGE_CURVE ( 'NONE', #110, #8, #165, .T. ) ;
#98 = CARTESIAN_POINT ( 'NONE',  ( 1.812999999999999945, 1.375000000000000000, 0.000000000000000000 ) ) ;
#99 = PERSON ( 'UNSPECIFIED', 'UNSPECIFIED', 'UNSPECIFIED', ('UNSPECIFIED'), ('UNSPECIFIED'), ('UNSPECIFIED') ) ;
#100 = DIRECTION ( 'NONE',  ( 0.000000000000000000, 0.000000000000000000, -1.000000000000000000 ) ) ;
#101 = APPLICATION_CONTEXT ( 'configuration controlled 3d designs of mechanical parts and assemblies' ) ;
#102 = LINE ( 'NONE', #32, #273 ) ;
#103 = DIRECTION ( 'NONE',  ( -0.000000000000000000, -0.000000000000000000, 1.000000000000000000 ) ) ;
#104 = DIRECTION ( 'NONE',  ( 0.000000000000000000, -0.000000000000000000, -1.000000000000000000 ) ) ;
#105 = SECURITY_CLASSIFICATION_LEVEL ( 'unclassified' ) ;
#106 = EDGE_CURVE ( 'NONE', #157, #286, #169, .T. ) ;
#107 = VERTEX_POINT ( 'NONE', #292 ) ;
#108 = ORIENTED_EDGE ( 'NONE', *, *, #15, .T. ) ;
#109 = PERSON_AND_ORGANIZATION_ROLE ( 'creator' ) ;
#110 = VERTEX_POINT ( 'NONE', #216 ) ;
#111 = ADVANCED_FACE ( 'NONE', ( #167 ), #49, .F. ) ;
#112 = COORDINATED_UNIVERSAL_TIME_OFFSET ( 6, 0, .BEHIND. ) ;
#113 = ORIENTED_EDGE ( 'NONE', *, *, #106, .F. ) ;
#114 = VECTOR ( 'NONE', #294, 39.37007874015748143 ) ;
#115 = ORIENTED_EDGE ( 'NONE', *, *, #270, .F. ) ;
#116 = CARTESIAN_POINT ( 'NONE',  ( 0.000000000000000000, 0.000000000000000000, 0.000000000000000000 ) ) ;
#117 = DIRECTION ( 'NONE',  ( -0.000000000000000000, -0.000000000000000000, 1.000000000000000000 ) ) ;
#118 = CC_DESIGN_APPROVAL ( #121, ( #65 ) ) ;
#119 = PLANE ( 'NONE',  #70 ) ;
#120 = PLANE ( 'NONE',  #50 ) ;
#121 = APPROVAL ( #300, 'UNSPECIFIED' ) ;
#122 = DIRECTION ( 'NONE',  ( 1.000000000000000000, 0.000000000000000000, 0.000000000000000000 ) ) ;
#123 = CARTESIAN_POINT ( 'NONE',  ( 0.9064999999999999725, 0.6875000000000000000, -0.2500000000000000000 ) ) ;
#124 = AXIS2_PLACEMENT_3D ( 'NONE', #34, #305, #88 ) ;
#125 = DIRECTION ( 'NONE',  ( 1.000000000000000000, 0.000000000000000000, 0.000000000000000000 ) ) ;
#126 = PLANE ( 'NONE',  #13 ) ;
#127 =( LENGTH_UNIT ( ) NAMED_UNIT ( * ) SI_UNIT ( $, .METRE. ) );
#128 = CIRCLE ( 'NONE', #18, 0.09375000000000005551 ) ;
#129 = CARTESIAN_POINT ( 'NONE',  ( 0.000000000000000000, 0.000000000000000000, -0.3750000000000000555 ) ) ;
#130 = EDGE_CURVE ( 'NONE', #287, #14, #128, .T. ) ;
#131 = CALENDAR_DATE ( 2022, 20, 4 ) ;
#132 = ORIENTED_EDGE ( 'NONE', *, *, #301, .T. ) ;
#133 = PERSON_AND_ORGANIZATION ( #99, #152 ) ;
#134 = EDGE_LOOP ( 'NONE', ( #87, #256, #5, #12 ) ) ;
#135 = VECTOR ( 'NONE', #79, 39.37007874015748143 ) ;
#136 = CC_DESIGN_APPROVAL ( #58, ( #197 ) ) ;
#137 = COORDINATED_UNIVERSAL_TIME_OFFSET ( 6, 0, .BEHIND. ) ;
#138 = VERTEX_POINT ( 'NONE', #48 ) ;
#139 = CALENDAR_DATE ( 2022, 20, 4 ) ;
#140 = ORIENTED_EDGE ( 'NONE', *, *, #301, .F. ) ;
#141 = VERTEX_POINT ( 'NONE', #72 ) ;
#142 = LINE ( 'NONE', #238, #296 ) ;
#143 = APPROVAL ( #154, 'UNSPECIFIED' ) ;
#144 = ADVANCED_FACE ( 'NONE', ( #293 ), #164, .T. ) ;
#145 = FACE_OUTER_BOUND ( 'NONE', #183, .T. ) ;
#146 = LINE ( 'NONE', #267, #317 ) ;
#147 = CARTESIAN_POINT ( 'NONE',  ( 0.000000000000000000, 1.375000000000000000, 0.000000000000000000 ) ) ;
#148 = CC_DESIGN_PERSON_AND_ORGANIZATION_ASSIGNMENT ( #227, #307, ( #65 ) ) ;
#149 = EDGE_CURVE ( 'NONE', #286, #141, #94, .T. ) ;
#150 = DIRECTION ( 'NONE',  ( -0.000000000000000000, -1.000000000000000000, -0.000000000000000000 ) ) ;
#151 = LINE ( 'NONE', #52, #114 ) ;
#152 = ORGANIZATION ( 'UNSPECIFIED', 'UNSPECIFIED', '' ) ;
#153 = EDGE_CURVE ( 'NONE', #14, #138, #93, .T. ) ;
#154 = APPROVAL_STATUS ( 'not_yet_approved' ) ;
#155 = ORIENTED_EDGE ( 'NONE', *, *, #175, .F. ) ;
#156 = DATE_AND_TIME ( #131, #302 ) ;
#157 = VERTEX_POINT ( 'NONE', #75 ) ;
#158 = AXIS2_PLACEMENT_3D ( 'NONE', #222, #172, #78 ) ;
#159 = PERSON_AND_ORGANIZATION ( #99, #152 ) ;
#160 = EDGE_LOOP ( 'NONE', ( #69, #10, #259, #232 ) ) ;
#161 = DIRECTION ( 'NONE',  ( 1.000000000000000000, 0.000000000000000000, 0.000000000000000000 ) ) ;
#162 = EDGE_CURVE ( 'NONE', #8, #184, #146, .T. ) ;
#163 = APPROVAL_PERSON_ORGANIZATION ( #176, #121, #36 ) ;
#164 = PLANE ( 'NONE',  #80 ) ;
#165 = LINE ( 'NONE', #291, #212 ) ;
#166 = ADVANCED_FACE ( 'NONE', ( #19 ), #120, .T. ) ;
#167 = FACE_OUTER_BOUND ( 'NONE', #160, .T. ) ;
#168 = VECTOR ( 'NONE', #319, 39.37007874015748143 ) ;
#169 = LINE ( 'NONE', #215, #27 ) ;
#170 = LINE ( 'NONE', #195, #289 ) ;
#171 = DIRECTION ( 'NONE',  ( -0.000000000000000000, -0.000000000000000000, 1.000000000000000000 ) ) ;
#172 = DIRECTION ( 'NONE',  ( -1.000000000000000000, 0.000000000000000000, 0.000000000000000000 ) ) ;
#173 = DIRECTION ( 'NONE',  ( 1.000000000000000000, 0.000000000000000000, 0.000000000000000000 ) ) ;
#174 = CC_DESIGN_PERSON_AND_ORGANIZATION_ASSIGNMENT ( #206, #82, ( #65 ) ) ;
#175 = EDGE_CURVE ( 'NONE', #138, #181, #83, .T. ) ;
#176 = PERSON_AND_ORGANIZATION ( #99, #152 ) ;
#177 = APPROVAL_DATE_TIME ( #7, #143 ) ;
#178 = PERSON_AND_ORGANIZATION ( #99, #152 ) ;
#179 = ORIENTED_EDGE ( 'NONE', *, *, #106, .T. ) ;
#180 = APPROVAL_STATUS ( 'not_yet_approved' ) ;
#181 = VERTEX_POINT ( 'NONE', #316 ) ;
#182 = AXIS2_PLACEMENT_3D ( 'NONE', #51, #23, #122 ) ;
#183 = EDGE_LOOP ( 'NONE', ( #42, #68, #92, #132 ) ) ;
#184 = VERTEX_POINT ( 'NONE', #98 ) ;
#185 = CARTESIAN_POINT ( 'NONE',  ( 0.000000000000000000, 1.375000000000000000, -0.3750000000000000555 ) ) ;
#186 = AXIS2_PLACEMENT_3D ( 'NONE', #2, #54, #274 ) ;
#187 = DIRECTION ( 'NONE',  ( -1.000000000000000000, 0.000000000000000000, -0.000000000000000000 ) ) ;
#188 = DIRECTION ( 'NONE',  ( 0.000000000000000000, 0.000000000000000000, 1.000000000000000000 ) ) ;
#189 = DIRECTION ( 'NONE',  ( 0.000000000000000000, -0.000000000000000000, 1.000000000000000000 ) ) ;
#190 = APPROVAL_PERSON_ORGANIZATION ( #200, #143, #11 ) ;
#191 = DIRECTION ( 'NONE',  ( 0.000000000000000000, 0.000000000000000000, -1.000000000000000000 ) ) ;
#192 = DIRECTION ( 'NONE',  ( 0.000000000000000000, 0.000000000000000000, 1.000000000000000000 ) ) ;
#193 =( NAMED_UNIT ( * ) PLANE_ANGLE_UNIT ( ) SI_UNIT ( $, .RADIAN. ) );
#194 = VECTOR ( 'NONE', #95, 39.37007874015748143 ) ;
#195 = CARTESIAN_POINT ( 'NONE',  ( 1.812999999999999945, 0.000000000000000000, 0.000000000000000000 ) ) ;
#196 =( GEOMETRIC_REPRESENTATION_CONTEXT ( 3 ) GLOBAL_UNCERTAINTY_ASSIGNED_CONTEXT ( ( #24 ) ) GLOBAL_UNIT_ASSIGNED_CONTEXT ( ( #31, #193, #248 ) ) REPRESENTATION_CONTEXT ( 'NONE', 'WORKASPACE' ) );
#197 = PRODUCT_DEFINITION ( 'UNKNOWN', '', #65, #225 ) ;
#198 = DIRECTION ( 'NONE',  ( 0.000000000000000000, -1.000000000000000000, 0.000000000000000000 ) ) ;
#199 = PLANE ( 'NONE',  #158 ) ;
#200 = PERSON_AND_ORGANIZATION ( #99, #152 ) ;
#201 = EDGE_LOOP ( 'NONE', ( #155, #115 ) ) ;
#202 = MECHANICAL_CONTEXT ( 'NONE', #25, 'mechanical' ) ;
#203 = ORIENTED_EDGE ( 'NONE', *, *, #314, .T. ) ;
#204 = DATE_AND_TIME ( #231, #213 ) ;
#205 = CARTESIAN_POINT ( 'NONE',  ( 1.812999999999999945, 1.375000000000000000, -0.3750000000000000555 ) ) ;
#206 = PERSON_AND_ORGANIZATION ( #99, #152 ) ;
#207 = ORIENTED_EDGE ( 'NONE', *, *, #149, .F. ) ;
#208 = LOCAL_TIME ( 14, 49, 23.00000000000000000, #41 ) ;
#209 = EDGE_CURVE ( 'NONE', #107, #141, #142, .T. ) ;
#210 = FACE_BOUND ( 'NONE', #201, .T. ) ;
#211 = CARTESIAN_POINT ( 'NONE',  ( 0.000000000000000000, 1.375000000000000000, -0.3750000000000000555 ) ) ;
#212 = VECTOR ( 'NONE', #240, 39.37007874015748143 ) ;
#213 = LOCAL_TIME ( 14, 49, 23.00000000000000000, #137 ) ;
#214 = CARTESIAN_POINT ( 'NONE',  ( 1.812999999999999945, 0.000000000000000000, 0.000000000000000000 ) ) ;
#215 = CARTESIAN_POINT ( 'NONE',  ( 0.000000000000000000, 0.000000000000000000, -0.3750000000000000555 ) ) ;
#216 = CARTESIAN_POINT ( 'NONE',  ( 1.812999999999999945, 0.000000000000000000, -0.3750000000000000555 ) ) ;
#217 = CC_DESIGN_DATE_AND_TIME_ASSIGNMENT ( #3, #233, ( #218 ) ) ;
#218 = SECURITY_CLASSIFICATION ( '', '', #105 ) ;
#219 = ADVANCED_FACE ( 'NONE', ( #16 ), #126, .T. ) ;
#220 = CARTESIAN_POINT ( 'NONE',  ( 1.812999999999999945, 0.000000000000000000, -0.3750000000000000555 ) ) ;
#221 = LINE ( 'NONE', #246, #168 ) ;
#222 = CARTESIAN_POINT ( 'NONE',  ( 0.000000000000000000, 0.000000000000000000, -0.3750000000000000555 ) ) ;
#223 = ADVANCED_FACE ( 'NONE', ( #56 ), #199, .T. ) ;
#224 = CLOSED_SHELL ( 'NONE', ( #235, #223, #166, #277, #219, #144, #44, #111, #254 ) ) ;
#225 = DESIGN_CONTEXT ( 'detailed design', #101, 'design' ) ;
#226 = PLANE ( 'NONE',  #76 ) ;
#227 = PERSON_AND_ORGANIZATION ( #99, #152 ) ;
#228 = ORIENTED_EDGE ( 'NONE', *, *, #311, .T. ) ;
#229 = APPROVAL_DATE_TIME ( #204, #121 ) ;
#230 = EDGE_LOOP ( 'NONE', ( #91, #306 ) ) ;
#231 = CALENDAR_DATE ( 2022, 20, 4 ) ;
#232 = ORIENTED_EDGE ( 'NONE', *, *, #175, .T. ) ;
#233 = DATE_TIME_ROLE ( 'classification_date' ) ;
#234 = EDGE_LOOP ( 'NONE', ( #140, #279, #35, #228 ) ) ;
#235 = ADVANCED_FACE ( 'NONE', ( #1 ), #26, .F. ) ;
#236 = ORIENTED_EDGE ( 'NONE', *, *, #314, .F. ) ;
#237 = LOCAL_TIME ( 14, 49, 23.00000000000000000, #62 ) ;
#238 = CARTESIAN_POINT ( 'NONE',  ( 0.000000000000000000, 0.000000000000000000, 0.000000000000000000 ) ) ;
#239 = CARTESIAN_POINT ( 'NONE',  ( 0.9064999999999999725, 0.6875000000000000000, -0.2500000000000000000 ) ) ;
#240 = DIRECTION ( 'NONE',  ( 0.000000000000000000, 1.000000000000000000, 0.000000000000000000 ) ) ;
#241 = CIRCLE ( 'NONE', #186, 0.09375000000000005551 ) ;
#242 = LOCAL_TIME ( 14, 49, 23.00000000000000000, #276 ) ;
#243 = DIRECTION ( 'NONE',  ( 1.000000000000000000, 0.000000000000000000, 0.000000000000000000 ) ) ;
#244 = CARTESIAN_POINT ( 'NONE',  ( 0.000000000000000000, 1.375000000000000000, -0.3750000000000000555 ) ) ;
#245 = EDGE_CURVE ( 'NONE', #287, #181, #102, .T. ) ;
#246 = CARTESIAN_POINT ( 'NONE',  ( 0.000000000000000000, 1.375000000000000000, -0.3750000000000000555 ) ) ;
#247 = CARTESIAN_POINT ( 'NONE',  ( 0.000000000000000000, 0.000000000000000000, -0.3750000000000000555 ) ) ;
#248 =( NAMED_UNIT ( * ) SI_UNIT ( $, .STERADIAN. ) SOLID_ANGLE_UNIT ( ) );
#249 = AXIS2_PLACEMENT_3D ( 'NONE', #81, #192, #173 ) ;
#250 = DIRECTION ( 'NONE',  ( 1.000000000000000000, 0.000000000000000000, 0.000000000000000000 ) ) ;
#251 = APPROVAL_PERSON_ORGANIZATION ( #133, #58, #258 ) ;
#252 = DIMENSIONAL_EXPONENTS ( 1.000000000000000000, 0.000000000000000000, 0.000000000000000000, 0.000000000000000000, 0.000000000000000000, 0.000000000000000000, 0.000000000000000000 ) ;
#253 = ORIENTED_EDGE ( 'NONE', *, *, #149, .T. ) ;
#254 = ADVANCED_FACE ( 'NONE', ( #59 ), #272, .T. ) ;
#255 = APPLICATION_PROTOCOL_DEFINITION ( 'international standard', 'config_control_design', 1994, #25 ) ;
#256 = ORIENTED_EDGE ( 'NONE', *, *, #245, .T. ) ;
#257 = MANIFOLD_SOLID_BREP ( 'Cut-Extrude1', #224 ) ;
#258 = APPROVAL_ROLE ( '' ) ;
#259 = ORIENTED_EDGE ( 'NONE', *, *, #153, .T. ) ;
#260 = PERSON_AND_ORGANIZATION_ROLE ( 'classification_officer' ) ;
#261 = EDGE_CURVE ( 'NONE', #64, #184, #170, .T. ) ;
#262 = ORIENTED_EDGE ( 'NONE', *, *, #261, .F. ) ;
#263 = VECTOR ( 'NONE', #269, 39.37007874015748143 ) ;
#264 = LINE ( 'NONE', #116, #38 ) ;
#265 = DIRECTION ( 'NONE',  ( 0.000000000000000000, 0.000000000000000000, 1.000000000000000000 ) ) ;
#266 = DIRECTION ( 'NONE',  ( 1.000000000000000000, 0.000000000000000000, 0.000000000000000000 ) ) ;
#267 = CARTESIAN_POINT ( 'NONE',  ( 1.812999999999999945, 1.375000000000000000, -0.3750000000000000555 ) ) ;
#268 = AXIS2_PLACEMENT_3D ( 'NONE', #22, #117, #266 ) ;
#269 = DIRECTION ( 'NONE',  ( 1.000000000000000000, 0.000000000000000000, 0.000000000000000000 ) ) ;
#270 = EDGE_CURVE ( 'NONE', #181, #138, #241, .T. ) ;
#271 = CARTESIAN_POINT ( 'NONE',  ( 0.8127499999999999725, 0.6875000000000000000, -0.2500000000000000000 ) ) ;
#272 = PLANE ( 'NONE',  #284 ) ;
#273 = VECTOR ( 'NONE', #171, 39.37007874015748143 ) ;
#274 = DIRECTION ( 'NONE',  ( 1.000000000000000000, 0.000000000000000000, 0.000000000000000000 ) ) ;
#275 = DIRECTION ( 'NONE',  ( 0.000000000000000000, 1.000000000000000000, 0.000000000000000000 ) ) ;
#276 = COORDINATED_UNIVERSAL_TIME_OFFSET ( 6, 0, .BEHIND. ) ;
#277 = ADVANCED_FACE ( 'NONE', ( #57 ), #226, .T. ) ;
#278 = SHAPE_DEFINITION_REPRESENTATION ( #63, #45 ) ;
#279 = ORIENTED_EDGE ( 'NONE', *, *, #162, .F. ) ;
#280 = APPLICATION_PROTOCOL_DEFINITION ( 'international standard', 'config_control_design', 1994, #101 ) ;
#281 = EDGE_LOOP ( 'NONE', ( #262, #236, #61, #43 ) ) ;
#282 = EDGE_CURVE ( 'NONE', #14, #287, #55, .T. ) ;
#283 = CALENDAR_DATE ( 2022, 20, 4 ) ;
#284 = AXIS2_PLACEMENT_3D ( 'NONE', #77, #298, #297 ) ;
#285 = ORIENTED_EDGE ( 'NONE', *, *, #15, .F. ) ;
#286 = VERTEX_POINT ( 'NONE', #129 ) ;
#287 = VERTEX_POINT ( 'NONE', #271 ) ;
#288 = DIRECTION ( 'NONE',  ( -0.000000000000000000, -1.000000000000000000, -0.000000000000000000 ) ) ;
#289 = VECTOR ( 'NONE', #275, 39.37007874015748143 ) ;
#290 = DIRECTION ( 'NONE',  ( -0.000000000000000000, -0.000000000000000000, 1.000000000000000000 ) ) ;
#291 = CARTESIAN_POINT ( 'NONE',  ( 1.812999999999999945, 0.000000000000000000, -0.3750000000000000555 ) ) ;
#292 = CARTESIAN_POINT ( 'NONE',  ( 0.000000000000000000, 1.375000000000000000, 0.000000000000000000 ) ) ;
#293 = FACE_OUTER_BOUND ( 'NONE', #89, .T. ) ;
#294 = DIRECTION ( 'NONE',  ( 0.000000000000000000, 0.000000000000000000, 1.000000000000000000 ) ) ;
#295 = LINE ( 'NONE', #30, #135 ) ;
#296 = VECTOR ( 'NONE', #288, 39.37007874015748143 ) ;
#297 = DIRECTION ( 'NONE',  ( 1.000000000000000000, 0.000000000000000000, -0.000000000000000000 ) ) ;
#298 = DIRECTION ( 'NONE',  ( 0.000000000000000000, 0.000000000000000000, 1.000000000000000000 ) ) ;
#299 = PRODUCT_RELATED_PRODUCT_CATEGORY ( 'detail', '', ( #4 ) ) ;
#300 = APPROVAL_STATUS ( 'not_yet_approved' ) ;
#301 = EDGE_CURVE ( 'NONE', #184, #107, #295, .T. ) ;
#302 = LOCAL_TIME ( 14, 49, 23.00000000000000000, #112 ) ;
#303 = APPROVAL_DATE_TIME ( #90, #58 ) ;
#304 = ORIENTED_EDGE ( 'NONE', *, *, #21, .F. ) ;
#305 = DIRECTION ( 'NONE',  ( 0.000000000000000000, 0.000000000000000000, 1.000000000000000000 ) ) ;
#306 = ORIENTED_EDGE ( 'NONE', *, *, #130, .T. ) ;
#307 = PERSON_AND_ORGANIZATION_ROLE ( 'creator' ) ;
#308 = ORIENTED_EDGE ( 'NONE', *, *, #209, .F. ) ;
#309 = ORIENTED_EDGE ( 'NONE', *, *, #311, .F. ) ;
#310 = LINE ( 'NONE', #185, #194 ) ;
#311 = EDGE_CURVE ( 'NONE', #157, #107, #221, .T. ) ;
#312 = DIRECTION ( 'NONE',  ( -1.000000000000000000, 0.000000000000000000, -0.000000000000000000 ) ) ;
#313 = CARTESIAN_POINT ( 'NONE',  ( 1.000250000000000083, 0.6875000000000000000, -0.2500000000000000000 ) ) ;
#314 = EDGE_CURVE ( 'NONE', #110, #64, #151, .T. ) ;
#315 = CARTESIAN_POINT ( 'NONE',  ( 0.000000000000000000, 0.000000000000000000, -0.3750000000000000555 ) ) ;
#316 = CARTESIAN_POINT ( 'NONE',  ( 0.8127499999999999725, 0.6875000000000000000, 0.000000000000000000 ) ) ;
#317 = VECTOR ( 'NONE', #73, 39.37007874015748143 ) ;
#318 = CC_DESIGN_SECURITY_CLASSIFICATION ( #218, ( #65 ) ) ;
#319 = DIRECTION ( 'NONE',  ( 0.000000000000000000, 0.000000000000000000, 1.000000000000000000 ) ) ;
#320 = LENGTH_MEASURE_WITH_UNIT ( LENGTH_MEASURE( 0.02539999999999999897 ), #127 );
ENDSEC;
END-ISO-10303-21;
