ISO-10303-21;
HEADER;
FILE_DESCRIPTION (( 'STEP AP203' ),
    '1' );
FILE_NAME ('797BIGWICK.STEP',
    '2022-04-26T21:03:08',
    ( '' ),
    ( '' ),
    'SwSTEP 2.0',
    'SolidWorks 2020',
    '' );
FILE_SCHEMA (( 'CONFIG_CONTROL_DESIGN' ));
ENDSEC;

DATA;
#1 = ORIENTED_EDGE ( 'NONE', *, *, #102, .F. ) ;
#2 = EDGE_LOOP ( 'NONE', ( #240, #260, #215, #217 ) ) ;
#3 = UNCERTAINTY_MEASURE_WITH_UNIT (LENGTH_MEASURE( 1.000000000000000082E-05 ), #112, 'distance_accuracy_value', 'NONE');
#4 = MANIFOLD_SOLID_BREP ( 'Cut-Extrude1', #131 ) ;
#5 = ADVANCED_FACE ( 'NONE', ( #306 ), #191, .T. ) ;
#6 = ORIENTED_EDGE ( 'NONE', *, *, #281, .T. ) ;
#7 = APPLICATION_PROTOCOL_DEFINITION ( 'international standard', 'config_control_design', 1994, #257 ) ;
#8 = CARTESIAN_POINT ( 'NONE',  ( 0.000000000000000000, 0.000000000000000000, -0.4000000000000000222 ) ) ;
#9 = APPROVAL_DATE_TIME ( #200, #252 ) ;
#10 = DIRECTION ( 'NONE',  ( -0.7795245383973429254, -0.6263716900023573730, 0.000000000000000000 ) ) ;
#11 = COORDINATED_UNIVERSAL_TIME_OFFSET ( 6, 0, .BEHIND. ) ;
#12 = AXIS2_PLACEMENT_3D ( 'NONE', #227, #104, #14 ) ;
#13 = CARTESIAN_POINT ( 'NONE',  ( 2.374999999999999556, 1.125000000000000888, 0.000000000000000000 ) ) ;
#14 = DIRECTION ( 'NONE',  ( 0.000000000000000000, -0.6263716900023584833, 0.7795245383973420372 ) ) ;
#15 = CARTESIAN_POINT ( 'NONE',  ( 2.374999999999999556, 1.750000000000000222, 0.000000000000000000 ) ) ;
#16 = VECTOR ( 'NONE', #157, 39.37007874015748143 ) ;
#17 = LINE ( 'NONE', #63, #220 ) ;
#18 = APPROVAL ( #124, 'UNSPECIFIED' ) ;
#19 = DIRECTION ( 'NONE',  ( -1.000000000000000000, 0.000000000000000000, -0.000000000000000000 ) ) ;
#20 = FACE_OUTER_BOUND ( 'NONE', #284, .T. ) ;
#21 = CARTESIAN_POINT ( 'NONE',  ( 0.000000000000000000, 0.000000000000000000, -0.4000000000000000222 ) ) ;
#22 = PERSON_AND_ORGANIZATION ( #41, #55 ) ;
#23 = EDGE_CURVE ( 'NONE', #25, #219, #270, .T. ) ;
#24 = ORIENTED_EDGE ( 'NONE', *, *, #225, .F. ) ;
#25 = VERTEX_POINT ( 'NONE', #31 ) ;
#26 = DIMENSIONAL_EXPONENTS ( 1.000000000000000000, 0.000000000000000000, 0.000000000000000000, 0.000000000000000000, 0.000000000000000000, 0.000000000000000000, 0.000000000000000000 ) ;
#27 = ORIENTED_EDGE ( 'NONE', *, *, #293, .T. ) ;
#28 = ORIENTED_EDGE ( 'NONE', *, *, #146, .F. ) ;
#29 = PLANE ( 'NONE',  #12 ) ;
#30 = SECURITY_CLASSIFICATION_LEVEL ( 'unclassified' ) ;
#31 = CARTESIAN_POINT ( 'NONE',  ( 2.375000000000000000, 0.8750000000000006661, -0.3111269837220794754 ) ) ;
#32 = DIRECTION ( 'NONE',  ( 0.000000000000000000, -1.000000000000000000, 0.000000000000000000 ) ) ;
#33 = CC_DESIGN_DATE_AND_TIME_ASSIGNMENT ( #50, #72, ( #111 ) ) ;
#34 = APPROVAL_PERSON_ORGANIZATION ( #67, #18, #52 ) ;
#35 = DIRECTION ( 'NONE',  ( -1.561055996379578735E-16, 1.000000000000000000, 0.000000000000000000 ) ) ;
#36 = LINE ( 'NONE', #156, #148 ) ;
#37 = EDGE_CURVE ( 'NONE', #68, #283, #177, .T. ) ;
#38 = DIRECTION ( 'NONE',  ( 0.000000000000000000, 0.000000000000000000, 1.000000000000000000 ) ) ;
#39 = VECTOR ( 'NONE', #35, 39.37007874015748143 ) ;
#40 = CARTESIAN_POINT ( 'NONE',  ( 1.236981112407878447, 1.539432809698591420, 0.000000000000000000 ) ) ;
#41 = PERSON ( 'UNSPECIFIED', 'UNSPECIFIED', 'UNSPECIFIED', ('UNSPECIFIED'), ('UNSPECIFIED'), ('UNSPECIFIED') ) ;
#42 = ADVANCED_FACE ( 'NONE', ( #107 ), #133, .F. ) ;
#43 = PERSON_AND_ORGANIZATION_ROLE ( 'classification_officer' ) ;
#44 = PERSON_AND_ORGANIZATION_ROLE ( 'design_supplier' ) ;
#45 = EDGE_LOOP ( 'NONE', ( #24, #280, #172 ) ) ;
#46 = EDGE_LOOP ( 'NONE', ( #117, #142, #221 ) ) ;
#47 = EDGE_LOOP ( 'NONE', ( #173, #119, #69, #195 ) ) ;
#48 = VERTEX_POINT ( 'NONE', #228 ) ;
#49 = ORIENTED_EDGE ( 'NONE', *, *, #86, .T. ) ;
#50 = DATE_AND_TIME ( #76, #64 ) ;
#51 = PLANE ( 'NONE',  #170 ) ;
#52 = APPROVAL_ROLE ( '' ) ;
#53 = DIRECTION ( 'NONE',  ( -1.561055996379578735E-16, 1.000000000000000000, 0.000000000000000000 ) ) ;
#54 = CARTESIAN_POINT ( 'NONE',  ( 0.000000000000000000, 1.750000000000000000, -0.4000000000000000222 ) ) ;
#55 = ORGANIZATION ( 'UNSPECIFIED', 'UNSPECIFIED', '' ) ;
#56 = CARTESIAN_POINT ( 'NONE',  ( 0.3825049330079389742, -0.4760304242623066284, 0.000000000000000000 ) ) ;
#57 = LINE ( 'NONE', #56, #81 ) ;
#58 = CARTESIAN_POINT ( 'NONE',  ( 2.375000000000000000, 0.000000000000000000, -0.4000000000000000222 ) ) ;
#59 = CARTESIAN_POINT ( 'NONE',  ( 2.375000000000000000, 0.000000000000000000, -0.4000000000000000222 ) ) ;
#60 = LINE ( 'NONE', #62, #254 ) ;
#61 = CC_DESIGN_PERSON_AND_ORGANIZATION_ASSIGNMENT ( #214, #43, ( #290 ) ) ;
#62 = CARTESIAN_POINT ( 'NONE',  ( 2.374999999999999556, 1.750000000000000222, -0.4000000000000000222 ) ) ;
#63 = CARTESIAN_POINT ( 'NONE',  ( 0.000000000000000000, 1.750000000000000000, -0.4000000000000000222 ) ) ;
#64 = LOCAL_TIME ( 16, 3, 8.000000000000000000, #11 ) ;
#65 = CC_DESIGN_DATE_AND_TIME_ASSIGNMENT ( #139, #94, ( #290 ) ) ;
#66 = ORIENTED_EDGE ( 'NONE', *, *, #37, .T. ) ;
#67 = PERSON_AND_ORGANIZATION ( #41, #55 ) ;
#68 = VERTEX_POINT ( 'NONE', #78 ) ;
#69 = ORIENTED_EDGE ( 'NONE', *, *, #86, .F. ) ;
#70 = CC_DESIGN_PERSON_AND_ORGANIZATION_ASSIGNMENT ( #289, #198, ( #236 ) ) ;
#71 = ORIENTED_EDGE ( 'NONE', *, *, #92, .T. ) ;
#72 = DATE_TIME_ROLE ( 'creation_date' ) ;
#73 = VECTOR ( 'NONE', #251, 39.37007874015748143 ) ;
#74 = LINE ( 'NONE', #267, #159 ) ;
#75 = EDGE_CURVE ( 'NONE', #282, #259, #182, .T. ) ;
#76 = CALENDAR_DATE ( 2022, 26, 4 ) ;
#77 = LINE ( 'NONE', #153, #39 ) ;
#78 = CARTESIAN_POINT ( 'NONE',  ( 0.000000000000000000, 1.750000000000000000, 0.000000000000000000 ) ) ;
#79 = DIRECTION ( 'NONE',  ( -0.000000000000000000, -1.000000000000000000, -0.000000000000000000 ) ) ;
#80 = VECTOR ( 'NONE', #134, 39.37007874015748854 ) ;
#81 = VECTOR ( 'NONE', #10, 39.37007874015748854 ) ;
#82 = CARTESIAN_POINT ( 'NONE',  ( 2.375000000000000000, 0.000000000000000000, -0.4000000000000000222 ) ) ;
#83 = EDGE_CURVE ( 'NONE', #283, #241, #294, .T. ) ;
#84 = CARTESIAN_POINT ( 'NONE',  ( 0.000000000000000000, 0.000000000000000000, -0.4000000000000000222 ) ) ;
#85 =( NAMED_UNIT ( * ) PLANE_ANGLE_UNIT ( ) SI_UNIT ( $, .RADIAN. ) );
#86 = EDGE_CURVE ( 'NONE', #305, #282, #77, .T. ) ;
#87 = LOCAL_TIME ( 16, 3, 8.000000000000000000, #286 ) ;
#88 = DIRECTION ( 'NONE',  ( -0.000000000000000000, -1.000000000000000000, -0.000000000000000000 ) ) ;
#89 = CARTESIAN_POINT ( 'NONE',  ( 0.000000000000000000, 0.000000000000000000, -0.4000000000000000222 ) ) ;
#90 = CARTESIAN_POINT ( 'NONE',  ( 0.000000000000000000, 1.750000000000000000, -0.4000000000000000222 ) ) ;
#91 = PRODUCT_DEFINITION_SHAPE ( 'NONE', 'NONE',  #111 ) ;
#92 = EDGE_CURVE ( 'NONE', #144, #122, #36, .T. ) ;
#93 = ORIENTED_EDGE ( 'NONE', *, *, #225, .T. ) ;
#94 = DATE_TIME_ROLE ( 'classification_date' ) ;
#95 = EDGE_LOOP ( 'NONE', ( #140, #145, #123, #197 ) ) ;
#96 = EDGE_LOOP ( 'NONE', ( #262, #93, #243, #165, #120, #49, #27 ) ) ;
#97 = ADVANCED_FACE ( 'NONE', ( #126 ), #222, .T. ) ;
#98 = VERTEX_POINT ( 'NONE', #272 ) ;
#99 = PRODUCT_DEFINITION_FORMATION_WITH_SPECIFIED_SOURCE ( 'ANY', '', #236, .NOT_KNOWN. ) ;
#100 = PERSON_AND_ORGANIZATION ( #41, #55 ) ;
#101 = DIRECTION ( 'NONE',  ( 0.7071067811865487940, 1.103833280851924623E-16, -0.7071067811865462405 ) ) ;
#102 = EDGE_CURVE ( 'NONE', #144, #48, #57, .T. ) ;
#103 = APPROVAL_ROLE ( '' ) ;
#104 = DIRECTION ( 'NONE',  ( 0.5308346185444814402, 0.6606278948920243366, 0.5308346185444836607 ) ) ;
#105 = CC_DESIGN_APPROVAL ( #252, ( #111 ) ) ;
#106 = DIRECTION ( 'NONE',  ( 0.000000000000000000, 0.000000000000000000, 1.000000000000000000 ) ) ;
#107 = FACE_OUTER_BOUND ( 'NONE', #167, .T. ) ;
#108 = LINE ( 'NONE', #287, #230 ) ;
#109 = LINE ( 'NONE', #40, #80 ) ;
#110 = FACE_OUTER_BOUND ( 'NONE', #47, .T. ) ;
#111 = PRODUCT_DEFINITION ( 'UNKNOWN', '', #99, #263 ) ;
#112 =( CONVERSION_BASED_UNIT ( 'INCH', #161 ) LENGTH_UNIT ( ) NAMED_UNIT ( #26 ) );
#113 = AXIS2_PLACEMENT_3D ( 'NONE', #249, #292, #226 ) ;
#114 = CARTESIAN_POINT ( 'NONE',  ( 0.000000000000000000, 0.000000000000000000, 0.000000000000000000 ) ) ;
#115 = LINE ( 'NONE', #58, #73 ) ;
#116 = PERSON_AND_ORGANIZATION ( #41, #55 ) ;
#117 = ORIENTED_EDGE ( 'NONE', *, *, #23, .F. ) ;
#118 = COORDINATED_UNIVERSAL_TIME_OFFSET ( 6, 0, .BEHIND. ) ;
#119 = ORIENTED_EDGE ( 'NONE', *, *, #75, .F. ) ;
#120 = ORIENTED_EDGE ( 'NONE', *, *, #232, .F. ) ;
#121 = APPROVAL ( #203, 'UNSPECIFIED' ) ;
#122 = VERTEX_POINT ( 'NONE', #15 ) ;
#123 = ORIENTED_EDGE ( 'NONE', *, *, #208, .T. ) ;
#124 = APPROVAL_STATUS ( 'not_yet_approved' ) ;
#125 = EDGE_CURVE ( 'NONE', #98, #283, #204, .T. ) ;
#126 = FACE_OUTER_BOUND ( 'NONE', #96, .T. ) ;
#127 = CALENDAR_DATE ( 2022, 26, 4 ) ;
#128 = DIRECTION ( 'NONE',  ( -1.000000000000000000, -1.150251786806005760E-16, -0.000000000000000000 ) ) ;
#129 = DIRECTION ( 'NONE',  ( 1.000000000000000000, 0.000000000000000000, 0.000000000000000000 ) ) ;
#130 = DIRECTION ( 'NONE',  ( 0.000000000000000000, -0.000000000000000000, -1.000000000000000000 ) ) ;
#131 = CLOSED_SHELL ( 'NONE', ( #97, #42, #5, #256, #196, #297, #190, #179 ) ) ;
#132 = DIRECTION ( 'NONE',  ( 1.000000000000000000, 1.561055996379578735E-16, -0.000000000000000000 ) ) ;
#133 = PLANE ( 'NONE',  #113 ) ;
#134 = DIRECTION ( 'NONE',  ( 0.7795245383973432585, -0.6263716900023569290, 0.000000000000000000 ) ) ;
#135 = CC_DESIGN_APPROVAL ( #121, ( #99 ) ) ;
#136 =( NAMED_UNIT ( * ) SI_UNIT ( $, .STERADIAN. ) SOLID_ANGLE_UNIT ( ) );
#137 = CARTESIAN_POINT ( 'NONE',  ( 2.374999999999999556, 1.750000000000000222, -0.4000000000000000222 ) ) ;
#138 = EDGE_CURVE ( 'NONE', #48, #25, #108, .T. ) ;
#139 = DATE_AND_TIME ( #127, #143 ) ;
#140 = ORIENTED_EDGE ( 'NONE', *, *, #83, .F. ) ;
#141 = CC_DESIGN_PERSON_AND_ORGANIZATION_ASSIGNMENT ( #223, #44, ( #99 ) ) ;
#142 = ORIENTED_EDGE ( 'NONE', *, *, #138, .F. ) ;
#143 = LOCAL_TIME ( 16, 3, 8.000000000000000000, #268 ) ;
#144 = VERTEX_POINT ( 'NONE', #13 ) ;
#145 = ORIENTED_EDGE ( 'NONE', *, *, #125, .F. ) ;
#146 = EDGE_CURVE ( 'NONE', #122, #68, #74, .T. ) ;
#147 = MECHANICAL_CONTEXT ( 'NONE', #178, 'mechanical' ) ;
#148 = VECTOR ( 'NONE', #250, 39.37007874015748143 ) ;
#149 = ORIENTED_EDGE ( 'NONE', *, *, #83, .T. ) ;
#150 = APPROVAL_DATE_TIME ( #176, #121 ) ;
#151 = FACE_OUTER_BOUND ( 'NONE', #95, .T. ) ;
#152 = COORDINATED_UNIVERSAL_TIME_OFFSET ( 6, 0, .BEHIND. ) ;
#153 = CARTESIAN_POINT ( 'NONE',  ( 2.375000000000000000, 0.000000000000000000, -0.4000000000000000222 ) ) ;
#154 = CARTESIAN_POINT ( 'NONE',  ( 2.375000000000000000, 0.5750954072329444999, 0.06210666168597203662 ) ) ;
#155 = CC_DESIGN_SECURITY_CLASSIFICATION ( #290, ( #99 ) ) ;
#156 = CARTESIAN_POINT ( 'NONE',  ( 2.375000000000000000, 0.000000000000000000, 0.000000000000000000 ) ) ;
#157 = DIRECTION ( 'NONE',  ( 0.000000000000000000, 0.000000000000000000, 1.000000000000000000 ) ) ;
#158 = DIRECTION ( 'NONE',  ( 0.000000000000000000, 0.000000000000000000, -1.000000000000000000 ) ) ;
#159 = VECTOR ( 'NONE', #207, 39.37007874015748143 ) ;
#160 = APPROVAL_PERSON_ORGANIZATION ( #22, #252, #103 ) ;
#161 = LENGTH_MEASURE_WITH_UNIT ( LENGTH_MEASURE( 0.02539999999999999897 ), #185 );
#162 = AXIS2_PLACEMENT_3D ( 'NONE', #8, #199, #106 ) ;
#163 = CC_DESIGN_APPROVAL ( #18, ( #290 ) ) ;
#164 = PERSON_AND_ORGANIZATION_ROLE ( 'creator' ) ;
#165 = ORIENTED_EDGE ( 'NONE', *, *, #281, .F. ) ;
#166 = CALENDAR_DATE ( 2022, 26, 4 ) ;
#167 = EDGE_LOOP ( 'NONE', ( #1, #71, #192, #66, #149, #6, #189 ) ) ;
#168 = AXIS2_PLACEMENT_3D ( 'NONE', #302, #231, #298 ) ;
#169 = VECTOR ( 'NONE', #79, 39.37007874015748143 ) ;
#170 = AXIS2_PLACEMENT_3D ( 'NONE', #183, #180, #201 ) ;
#171 = AXIS2_PLACEMENT_3D ( 'NONE', #114, #210, #129 ) ;
#172 = ORIENTED_EDGE ( 'NONE', *, *, #138, .T. ) ;
#173 = ORIENTED_EDGE ( 'NONE', *, *, #285, .F. ) ;
#174 = PERSON_AND_ORGANIZATION_ROLE ( 'creator' ) ;
#175 = CARTESIAN_POINT ( 'NONE',  ( 0.000000000000000000, 0.000000000000000000, -0.4000000000000000222 ) ) ;
#176 = DATE_AND_TIME ( #266, #277 ) ;
#177 = LINE ( 'NONE', #205, #169 ) ;
#178 = APPLICATION_CONTEXT ( 'configuration controlled 3d designs of mechanical parts and assemblies' ) ;
#179 = ADVANCED_FACE ( 'NONE', ( #269 ), #29, .T. ) ;
#180 = DIRECTION ( 'NONE',  ( 0.5308346185444817733, -0.6606278948920241145, 0.5308346185444834386 ) ) ;
#181 = VECTOR ( 'NONE', #213, 39.37007874015748143 ) ;
#182 = LINE ( 'NONE', #54, #211 ) ;
#183 = CARTESIAN_POINT ( 'NONE',  ( -1.740784585421861541, 1.124999999999999556, 4.115784585421846664 ) ) ;
#184 = CC_DESIGN_PERSON_AND_ORGANIZATION_ASSIGNMENT ( #244, #164, ( #99 ) ) ;
#185 =( LENGTH_UNIT ( ) NAMED_UNIT ( * ) SI_UNIT ( $, .METRE. ) );
#186 = APPLICATION_PROTOCOL_DEFINITION ( 'international standard', 'config_control_design', 1994, #178 ) ;
#187 = CARTESIAN_POINT ( 'NONE',  ( 2.375000000000000000, 0.000000000000000000, 0.000000000000000000 ) ) ;
#188 = CARTESIAN_POINT ( 'NONE',  ( 2.375000000000000000, 0.4883069782033376272, -0.7923695177139690182 ) ) ;
#189 = ORIENTED_EDGE ( 'NONE', *, *, #276, .F. ) ;
#190 = ADVANCED_FACE ( 'NONE', ( #247 ), #51, .T. ) ;
#191 = PLANE ( 'NONE',  #162 ) ;
#192 = ORIENTED_EDGE ( 'NONE', *, *, #146, .T. ) ;
#193 = VECTOR ( 'NONE', #273, 39.37007874015748143 ) ;
#194 = VECTOR ( 'NONE', #209, 39.37007874015748143 ) ;
#195 = ORIENTED_EDGE ( 'NONE', *, *, #208, .F. ) ;
#196 = ADVANCED_FACE ( 'NONE', ( #151 ), #245, .T. ) ;
#197 = ORIENTED_EDGE ( 'NONE', *, *, #232, .T. ) ;
#198 = PERSON_AND_ORGANIZATION_ROLE ( 'design_owner' ) ;
#199 = DIRECTION ( 'NONE',  ( -1.000000000000000000, 0.000000000000000000, 0.000000000000000000 ) ) ;
#200 = DATE_AND_TIME ( #166, #87 ) ;
#201 = DIRECTION ( 'NONE',  ( 0.000000000000000000, -0.6263716900023585943, -0.7795245383973420372 ) ) ;
#202 = CC_DESIGN_PERSON_AND_ORGANIZATION_ASSIGNMENT ( #116, #174, ( #111 ) ) ;
#203 = APPROVAL_STATUS ( 'not_yet_approved' ) ;
#204 = LINE ( 'NONE', #175, #16 ) ;
#205 = CARTESIAN_POINT ( 'NONE',  ( 0.000000000000000000, 0.000000000000000000, 0.000000000000000000 ) ) ;
#206 = VECTOR ( 'NONE', #88, 39.37007874015748143 ) ;
#207 = DIRECTION ( 'NONE',  ( -1.000000000000000000, -1.150251786806005760E-16, -0.000000000000000000 ) ) ;
#208 = EDGE_CURVE ( 'NONE', #98, #305, #253, .T. ) ;
#209 = DIRECTION ( 'NONE',  ( -1.561055996379578735E-16, 1.000000000000000000, 0.000000000000000000 ) ) ;
#210 = DIRECTION ( 'NONE',  ( 0.000000000000000000, 0.000000000000000000, 1.000000000000000000 ) ) ;
#211 = VECTOR ( 'NONE', #128, 39.37007874015748143 ) ;
#212 = PLANE ( 'NONE',  #237 ) ;
#213 = DIRECTION ( 'NONE',  ( 1.000000000000000000, 0.000000000000000000, 0.000000000000000000 ) ) ;
#214 = PERSON_AND_ORGANIZATION ( #41, #55 ) ;
#215 = ORIENTED_EDGE ( 'NONE', *, *, #285, .T. ) ;
#216 = CALENDAR_DATE ( 2022, 26, 4 ) ;
#217 = ORIENTED_EDGE ( 'NONE', *, *, #125, .T. ) ;
#218 = ORIENTED_EDGE ( 'NONE', *, *, #293, .F. ) ;
#219 = VERTEX_POINT ( 'NONE', #274 ) ;
#220 = VECTOR ( 'NONE', #38, 39.37007874015748143 ) ;
#221 = ORIENTED_EDGE ( 'NONE', *, *, #276, .T. ) ;
#222 = PLANE ( 'NONE',  #301 ) ;
#223 = PERSON_AND_ORGANIZATION ( #41, #55 ) ;
#224 = CARTESIAN_POINT ( 'NONE',  ( 0.000000000000000000, 0.000000000000000000, 0.000000000000000000 ) ) ;
#225 = EDGE_CURVE ( 'NONE', #144, #25, #279, .T. ) ;
#226 = DIRECTION ( 'NONE',  ( -1.000000000000000000, 0.000000000000000000, -0.000000000000000000 ) ) ;
#227 = CARTESIAN_POINT ( 'NONE',  ( -1.896348077282901334, 0.8749999999999994449, 3.960221093560805983 ) ) ;
#228 = CARTESIAN_POINT ( 'NONE',  ( 2.063873016277919081, 0.8750000000000007772, 0.000000000000000000 ) ) ;
#229 = LINE ( 'NONE', #187, #194 ) ;
#230 = VECTOR ( 'NONE', #101, 39.37007874015748143 ) ;
#231 = DIRECTION ( 'NONE',  ( -1.150251786806005760E-16, 1.000000000000000000, 0.000000000000000000 ) ) ;
#232 = EDGE_CURVE ( 'NONE', #305, #241, #115, .T. ) ;
#233 = LOCAL_TIME ( 16, 3, 8.000000000000000000, #152 ) ;
#234 = PLANE ( 'NONE',  #168 ) ;
#235 = APPROVAL_STATUS ( 'not_yet_approved' ) ;
#236 = PRODUCT ( '797BIGWICK', '797BIGWICK', '', ( #147 ) ) ;
#237 = AXIS2_PLACEMENT_3D ( 'NONE', #84, #158, #19 ) ;
#238 = ORIENTED_EDGE ( 'NONE', *, *, #75, .T. ) ;
#239 = ORIENTED_EDGE ( 'NONE', *, *, #261, .T. ) ;
#240 = ORIENTED_EDGE ( 'NONE', *, *, #37, .F. ) ;
#241 = VERTEX_POINT ( 'NONE', #303 ) ;
#242 = APPROVAL_PERSON_ORGANIZATION ( #100, #121, #258 ) ;
#243 = ORIENTED_EDGE ( 'NONE', *, *, #23, .T. ) ;
#244 = PERSON_AND_ORGANIZATION ( #41, #55 ) ;
#245 = PLANE ( 'NONE',  #248 ) ;
#246 = SHAPE_DEFINITION_REPRESENTATION ( #91, #271 ) ;
#247 = FACE_OUTER_BOUND ( 'NONE', #45, .T. ) ;
#248 = AXIS2_PLACEMENT_3D ( 'NONE', #291, #32, #130 ) ;
#249 = CARTESIAN_POINT ( 'NONE',  ( 0.000000000000000000, 0.000000000000000000, 0.000000000000000000 ) ) ;
#250 = DIRECTION ( 'NONE',  ( -1.561055996379578735E-16, 1.000000000000000000, 0.000000000000000000 ) ) ;
#251 = DIRECTION ( 'NONE',  ( 0.000000000000000000, 0.000000000000000000, 1.000000000000000000 ) ) ;
#252 = APPROVAL ( #235, 'UNSPECIFIED' ) ;
#253 = LINE ( 'NONE', #89, #181 ) ;
#254 = VECTOR ( 'NONE', #296, 39.37007874015748143 ) ;
#255 = DIRECTION ( 'NONE',  ( 9.778012826405923917E-17, -0.6263716900023584833, -0.7795245383973421482 ) ) ;
#256 = ADVANCED_FACE ( 'NONE', ( #20 ), #234, .T. ) ;
#257 = APPLICATION_CONTEXT ( 'configuration controlled 3d designs of mechanical parts and assemblies' ) ;
#258 = APPROVAL_ROLE ( '' ) ;
#259 = VERTEX_POINT ( 'NONE', #90 ) ;
#260 = ORIENTED_EDGE ( 'NONE', *, *, #261, .F. ) ;
#261 = EDGE_CURVE ( 'NONE', #259, #68, #17, .T. ) ;
#262 = ORIENTED_EDGE ( 'NONE', *, *, #92, .F. ) ;
#263 = DESIGN_CONTEXT ( 'detailed design', #257, 'design' ) ;
#264 = DATE_AND_TIME ( #216, #233 ) ;
#265 = PRODUCT_RELATED_PRODUCT_CATEGORY ( 'detail', '', ( #236 ) ) ;
#266 = CALENDAR_DATE ( 2022, 26, 4 ) ;
#267 = CARTESIAN_POINT ( 'NONE',  ( 0.000000000000000000, 1.750000000000000000, 0.000000000000000000 ) ) ;
#268 = COORDINATED_UNIVERSAL_TIME_OFFSET ( 6, 0, .BEHIND. ) ;
#269 = FACE_OUTER_BOUND ( 'NONE', #46, .T. ) ;
#270 = LINE ( 'NONE', #154, #288 ) ;
#271 = ADVANCED_BREP_SHAPE_REPRESENTATION ( '797BIGWICK', ( #4, #171 ), #275 ) ;
#272 = CARTESIAN_POINT ( 'NONE',  ( 0.000000000000000000, 0.000000000000000000, -0.4000000000000000222 ) ) ;
#273 = DIRECTION ( 'NONE',  ( 1.000000000000000000, 0.000000000000000000, 0.000000000000000000 ) ) ;
#274 = CARTESIAN_POINT ( 'NONE',  ( 2.374999999999999112, 0.6250000000000005551, 5.463695987328526437E-16 ) ) ;
#275 =( GEOMETRIC_REPRESENTATION_CONTEXT ( 3 ) GLOBAL_UNCERTAINTY_ASSIGNED_CONTEXT ( ( #3 ) ) GLOBAL_UNIT_ASSIGNED_CONTEXT ( ( #112, #85, #136 ) ) REPRESENTATION_CONTEXT ( 'NONE', 'WORKASPACE' ) );
#276 = EDGE_CURVE ( 'NONE', #48, #219, #109, .T. ) ;
#277 = LOCAL_TIME ( 16, 3, 8.000000000000000000, #118 ) ;
#278 = LINE ( 'NONE', #21, #206 ) ;
#279 = LINE ( 'NONE', #188, #299 ) ;
#280 = ORIENTED_EDGE ( 'NONE', *, *, #102, .T. ) ;
#281 = EDGE_CURVE ( 'NONE', #241, #219, #229, .T. ) ;
#282 = VERTEX_POINT ( 'NONE', #137 ) ;
#283 = VERTEX_POINT ( 'NONE', #300 ) ;
#284 = EDGE_LOOP ( 'NONE', ( #28, #218, #238, #239 ) ) ;
#285 = EDGE_CURVE ( 'NONE', #259, #98, #278, .T. ) ;
#286 = COORDINATED_UNIVERSAL_TIME_OFFSET ( 6, 0, .BEHIND. ) ;
#287 = CARTESIAN_POINT ( 'NONE',  ( -1.896348077282901334, 0.8749999999999994449, 3.960221093560805983 ) ) ;
#288 = VECTOR ( 'NONE', #295, 39.37007874015748143 ) ;
#289 = PERSON_AND_ORGANIZATION ( #41, #55 ) ;
#290 = SECURITY_CLASSIFICATION ( '', '', #30 ) ;
#291 = CARTESIAN_POINT ( 'NONE',  ( 0.000000000000000000, 0.000000000000000000, -0.4000000000000000222 ) ) ;
#292 = DIRECTION ( 'NONE',  ( 0.000000000000000000, 0.000000000000000000, -1.000000000000000000 ) ) ;
#293 = EDGE_CURVE ( 'NONE', #282, #122, #60, .T. ) ;
#294 = LINE ( 'NONE', #224, #193 ) ;
#295 = DIRECTION ( 'NONE',  ( 9.778012826405926382E-17, -0.6263716900023585943, 0.7795245383973421482 ) ) ;
#296 = DIRECTION ( 'NONE',  ( 0.000000000000000000, 0.000000000000000000, 1.000000000000000000 ) ) ;
#297 = ADVANCED_FACE ( 'NONE', ( #110 ), #212, .T. ) ;
#298 = DIRECTION ( 'NONE',  ( -1.000000000000000000, -1.150251786806005760E-16, 0.000000000000000000 ) ) ;
#299 = VECTOR ( 'NONE', #255, 39.37007874015748854 ) ;
#300 = CARTESIAN_POINT ( 'NONE',  ( 0.000000000000000000, 0.000000000000000000, 0.000000000000000000 ) ) ;
#301 = AXIS2_PLACEMENT_3D ( 'NONE', #82, #132, #53 ) ;
#302 = CARTESIAN_POINT ( 'NONE',  ( 0.000000000000000000, 1.750000000000000000, -0.4000000000000000222 ) ) ;
#303 = CARTESIAN_POINT ( 'NONE',  ( 2.375000000000000000, 0.000000000000000000, 0.000000000000000000 ) ) ;
#304 = APPROVAL_DATE_TIME ( #264, #18 ) ;
#305 = VERTEX_POINT ( 'NONE', #59 ) ;
#306 = FACE_OUTER_BOUND ( 'NONE', #2, .T. ) ;
ENDSEC;
END-ISO-10303-21;
