ISO-10303-21;
HEADER;
FILE_DESCRIPTION (( 'STEP AP203' ),
    '1' );
FILE_NAME ('4159773_8.STEP',
    '2022-04-26T21:01:30',
    ( '' ),
    ( '' ),
    'SwSTEP 2.0',
    'SolidWorks 2020',
    '' );
FILE_SCHEMA (( 'CONFIG_CONTROL_DESIGN' ));
ENDSEC;

DATA;
#1 = CARTESIAN_POINT ( 'NONE',  ( 0.6560000000000000275, 1.750000000000000000, 0.000000000000000000 ) ) ;
#2 = ORIENTED_EDGE ( 'NONE', *, *, #397, .T. ) ;
#3 = LOCAL_TIME ( 16, 1, 30.00000000000000000, #310 ) ;
#4 = EDGE_CURVE ( 'NONE', #66, #334, #340, .T. ) ;
#5 = VERTEX_POINT ( 'NONE', #309 ) ;
#6 = DIRECTION ( 'NONE',  ( -0.000000000000000000, -0.000000000000000000, 1.000000000000000000 ) ) ;
#7 = VERTEX_POINT ( 'NONE', #178 ) ;
#8 =( CONVERSION_BASED_UNIT ( 'INCH', #197 ) LENGTH_UNIT ( ) NAMED_UNIT ( #83 ) );
#9 = EDGE_LOOP ( 'NONE', ( #202, #136 ) ) ;
#10 = EDGE_CURVE ( 'NONE', #334, #5, #287, .T. ) ;
#11 = VERTEX_POINT ( 'NONE', #384 ) ;
#12 = PERSON_AND_ORGANIZATION ( #87, #134 ) ;
#13 = DIRECTION ( 'NONE',  ( 1.000000000000000000, 0.000000000000000000, 0.000000000000000000 ) ) ;
#14 = APPROVAL_DATE_TIME ( #307, #183 ) ;
#15 = FACE_OUTER_BOUND ( 'NONE', #301, .T. ) ;
#16 = PERSON_AND_ORGANIZATION ( #87, #134 ) ;
#17 = AXIS2_PLACEMENT_3D ( 'NONE', #420, #128, #256 ) ;
#18 = DIRECTION ( 'NONE',  ( -1.000000000000000000, 0.000000000000000000, 0.000000000000000000 ) ) ;
#19 = CC_DESIGN_PERSON_AND_ORGANIZATION_ASSIGNMENT ( #412, #122, ( #383 ) ) ;
#20 = ORIENTED_EDGE ( 'NONE', *, *, #345, .T. ) ;
#21 = DIRECTION ( 'NONE',  ( 0.000000000000000000, 0.000000000000000000, 1.000000000000000000 ) ) ;
#22 = PLANE ( 'NONE',  #236 ) ;
#23 = VECTOR ( 'NONE', #65, 39.37007874015748143 ) ;
#24 = PLANE ( 'NONE',  #402 ) ;
#25 = DIRECTION ( 'NONE',  ( -0.000000000000000000, -1.000000000000000000, -0.000000000000000000 ) ) ;
#26 = LINE ( 'NONE', #53, #89 ) ;
#27 = EDGE_CURVE ( 'NONE', #68, #5, #82, .T. ) ;
#28 = FACE_BOUND ( 'NONE', #267, .T. ) ;
#29 = DIRECTION ( 'NONE',  ( 0.000000000000000000, 0.000000000000000000, 1.000000000000000000 ) ) ;
#30 = ORIENTED_EDGE ( 'NONE', *, *, #103, .F. ) ;
#31 = EDGE_CURVE ( 'NONE', #7, #39, #173, .T. ) ;
#32 = DIRECTION ( 'NONE',  ( 1.000000000000000000, 0.000000000000000000, 0.000000000000000000 ) ) ;
#33 = EDGE_LOOP ( 'NONE', ( #171, #214 ) ) ;
#34 = AXIS2_PLACEMENT_3D ( 'NONE', #389, #365, #293 ) ;
#35 = DIRECTION ( 'NONE',  ( 0.000000000000000000, 0.000000000000000000, 1.000000000000000000 ) ) ;
#36 = ORIENTED_EDGE ( 'NONE', *, *, #397, .F. ) ;
#37 = CARTESIAN_POINT ( 'NONE',  ( 0.8465000000000001412, 1.750000000000000000, -0.3599999999999999867 ) ) ;
#38 = ADVANCED_FACE ( 'NONE', ( #15 ), #217, .F. ) ;
#39 = VERTEX_POINT ( 'NONE', #244 ) ;
#40 = ORIENTED_EDGE ( 'NONE', *, *, #282, .T. ) ;
#41 = CIRCLE ( 'NONE', #215, 0.1905000000000000582 ) ;
#42 = DIRECTION ( 'NONE',  ( 0.000000000000000000, 0.000000000000000000, 1.000000000000000000 ) ) ;
#43 = AXIS2_PLACEMENT_3D ( 'NONE', #387, #219, #57 ) ;
#44 = DATE_TIME_ROLE ( 'classification_date' ) ;
#45 = DIRECTION ( 'NONE',  ( 1.000000000000000000, 0.000000000000000000, 0.000000000000000000 ) ) ;
#46 = ADVANCED_FACE ( 'NONE', ( #206 ), #277, .F. ) ;
#47 = APPLICATION_PROTOCOL_DEFINITION ( 'international standard', 'config_control_design', 1994, #261 ) ;
#48 = DIRECTION ( 'NONE',  ( 1.000000000000000000, 0.000000000000000000, 0.000000000000000000 ) ) ;
#49 = VECTOR ( 'NONE', #162, 39.37007874015748143 ) ;
#50 = CARTESIAN_POINT ( 'NONE',  ( 0.000000000000000000, 0.000000000000000000, -0.3599999999999999867 ) ) ;
#51 = DIRECTION ( 'NONE',  ( -0.000000000000000000, -0.000000000000000000, 1.000000000000000000 ) ) ;
#52 = DIRECTION ( 'NONE',  ( -0.000000000000000000, -0.000000000000000000, 1.000000000000000000 ) ) ;
#53 = CARTESIAN_POINT ( 'NONE',  ( 0.000000000000000000, 4.601031143072588314, -0.3599999999999999867 ) ) ;
#54 = VECTOR ( 'NONE', #289, 39.37007874015748143 ) ;
#55 = DIRECTION ( 'NONE',  ( 1.000000000000000000, 0.000000000000000000, -0.000000000000000000 ) ) ;
#56 = UNCERTAINTY_MEASURE_WITH_UNIT (LENGTH_MEASURE( 1.000000000000000082E-05 ), #8, 'distance_accuracy_value', 'NONE');
#57 = DIRECTION ( 'NONE',  ( 1.000000000000000000, 0.000000000000000000, 0.000000000000000000 ) ) ;
#58 = CARTESIAN_POINT ( 'NONE',  ( 0.06250000000000047184, 4.709284318545643444, -0.3599999999999999867 ) ) ;
#59 = LOCAL_TIME ( 16, 1, 30.00000000000000000, #403 ) ;
#60 = ORIENTED_EDGE ( 'NONE', *, *, #270, .F. ) ;
#61 = AXIS2_PLACEMENT_3D ( 'NONE', #274, #405, #179 ) ;
#62 = ADVANCED_FACE ( 'NONE', ( #180 ), #413, .T. ) ;
#63 = MECHANICAL_CONTEXT ( 'NONE', #114, 'mechanical' ) ;
#64 = ORIENTED_EDGE ( 'NONE', *, *, #391, .T. ) ;
#65 = DIRECTION ( 'NONE',  ( 0.000000000000000000, 0.000000000000000000, 1.000000000000000000 ) ) ;
#66 = VERTEX_POINT ( 'NONE', #145 ) ;
#67 = VECTOR ( 'NONE', #105, 39.37007874015748854 ) ;
#68 = VERTEX_POINT ( 'NONE', #376 ) ;
#69 = CARTESIAN_POINT ( 'NONE',  ( 2.063000000000000167, 0.5629999999999999449, -0.3599999999999999867 ) ) ;
#70 = ORIENTED_EDGE ( 'NONE', *, *, #31, .T. ) ;
#71 = ORIENTED_EDGE ( 'NONE', *, *, #313, .F. ) ;
#72 = DIRECTION ( 'NONE',  ( 0.000000000000000000, 0.000000000000000000, 1.000000000000000000 ) ) ;
#73 = CC_DESIGN_APPROVAL ( #174, ( #383 ) ) ;
#74 = DATE_AND_TIME ( #216, #226 ) ;
#75 = ORIENTED_EDGE ( 'NONE', *, *, #372, .F. ) ;
#76 = AXIS2_PLACEMENT_3D ( 'NONE', #77, #72, #45 ) ;
#77 = CARTESIAN_POINT ( 'NONE',  ( 2.063000000000000167, 0.5629999999999999449, 0.000000000000000000 ) ) ;
#78 = PERSON_AND_ORGANIZATION_ROLE ( 'design_owner' ) ;
#79 = PLANE ( 'NONE',  #61 ) ;
#80 = APPROVAL_STATUS ( 'not_yet_approved' ) ;
#81 = ADVANCED_FACE ( 'NONE', ( #118 ), #247, .T. ) ;
#82 = LINE ( 'NONE', #209, #318 ) ;
#83 = DIMENSIONAL_EXPONENTS ( 1.000000000000000000, 0.000000000000000000, 0.000000000000000000, 0.000000000000000000, 0.000000000000000000, 0.000000000000000000, 0.000000000000000000 ) ;
#84 = AXIS2_PLACEMENT_3D ( 'NONE', #176, #306, #346 ) ;
#85 = DIRECTION ( 'NONE',  ( 1.000000000000000000, 0.000000000000000000, 0.000000000000000000 ) ) ;
#86 = DIRECTION ( 'NONE',  ( -0.8660254037844373753, 0.5000000000000022204, 0.000000000000000000 ) ) ;
#87 = PERSON ( 'UNSPECIFIED', 'UNSPECIFIED', 'UNSPECIFIED', ('UNSPECIFIED'), ('UNSPECIFIED'), ('UNSPECIFIED') ) ;
#88 = CARTESIAN_POINT ( 'NONE',  ( 2.063000000000000167, 0.5629999999999999449, -0.3599999999999999867 ) ) ;
#89 = VECTOR ( 'NONE', #159, 39.37007874015748143 ) ;
#90 = CC_DESIGN_PERSON_AND_ORGANIZATION_ASSIGNMENT ( #141, #213, ( #377 ) ) ;
#91 = CLOSED_SHELL ( 'NONE', ( #367, #160, #62, #196, #38, #81, #121, #182, #253, #350, #46 ) ) ;
#92 = FACE_OUTER_BOUND ( 'NONE', #401, .T. ) ;
#93 = FACE_OUTER_BOUND ( 'NONE', #337, .T. ) ;
#94 = CARTESIAN_POINT ( 'NONE',  ( 0.6560000000000000275, 1.750000000000000000, -0.3599999999999999867 ) ) ;
#95 = EDGE_LOOP ( 'NONE', ( #142, #304, #333, #371 ) ) ;
#96 = CIRCLE ( 'NONE', #336, 0.1905000000000000582 ) ;
#97 = DIRECTION ( 'NONE',  ( 1.000000000000000000, 0.000000000000000000, 0.000000000000000000 ) ) ;
#98 = VERTEX_POINT ( 'NONE', #50 ) ;
#99 = AXIS2_PLACEMENT_3D ( 'NONE', #317, #286, #55 ) ;
#100 = LINE ( 'NONE', #259, #411 ) ;
#101 = VERTEX_POINT ( 'NONE', #212 ) ;
#102 = ORIENTED_EDGE ( 'NONE', *, *, #129, .F. ) ;
#103 = EDGE_CURVE ( 'NONE', #194, #331, #419, .T. ) ;
#104 = PRODUCT ( '4159773_8', '4159773_8', '', ( #63 ) ) ;
#105 = DIRECTION ( 'NONE',  ( -0.5000000000000022204, -0.8660254037844373753, 0.000000000000000000 ) ) ;
#106 = ORIENTED_EDGE ( 'NONE', *, *, #282, .F. ) ;
#107 = AXIS2_PLACEMENT_3D ( 'NONE', #373, #42, #172 ) ;
#108 = ORIENTED_EDGE ( 'NONE', *, *, #319, .T. ) ;
#109 = DATE_TIME_ROLE ( 'creation_date' ) ;
#110 = CARTESIAN_POINT ( 'NONE',  ( 2.500000000000000000, 0.000000000000000000, -0.3599999999999999867 ) ) ;
#111 = ORIENTED_EDGE ( 'NONE', *, *, #132, .T. ) ;
#112 = CALENDAR_DATE ( 2022, 26, 4 ) ;
#113 = CARTESIAN_POINT ( 'NONE',  ( 2.500000000000000000, 2.218716070412193098, -0.3599999999999999867 ) ) ;
#114 = APPLICATION_CONTEXT ( 'configuration controlled 3d designs of mechanical parts and assemblies' ) ;
#115 = ORIENTED_EDGE ( 'NONE', *, *, #4, .F. ) ;
#116 = AXIS2_PLACEMENT_3D ( 'NONE', #193, #29, #163 ) ;
#117 = CALENDAR_DATE ( 2022, 26, 4 ) ;
#118 = FACE_OUTER_BOUND ( 'NONE', #341, .T. ) ;
#119 = APPROVAL_STATUS ( 'not_yet_approved' ) ;
#120 = DIRECTION ( 'NONE',  ( -0.000000000000000000, -0.000000000000000000, 1.000000000000000000 ) ) ;
#121 = ADVANCED_FACE ( 'NONE', ( #154 ), #79, .T. ) ;
#122 = PERSON_AND_ORGANIZATION_ROLE ( 'creator' ) ;
#123 = DIRECTION ( 'NONE',  ( 0.000000000000000000, 1.000000000000000000, 0.000000000000000000 ) ) ;
#124 = LOCAL_TIME ( 16, 1, 30.00000000000000000, #151 ) ;
#125 = DIRECTION ( 'NONE',  ( 1.000000000000000000, 0.000000000000000000, -0.000000000000000000 ) ) ;
#126 = AXIS2_PLACEMENT_3D ( 'NONE', #381, #343, #13 ) ;
#127 = CARTESIAN_POINT ( 'NONE',  ( 0.000000000000000000, 0.000000000000000000, -0.3599999999999999867 ) ) ;
#128 = DIRECTION ( 'NONE',  ( 0.000000000000000000, 0.000000000000000000, 1.000000000000000000 ) ) ;
#129 = EDGE_CURVE ( 'NONE', #168, #233, #415, .T. ) ;
#130 = FACE_BOUND ( 'NONE', #263, .T. ) ;
#131 = CARTESIAN_POINT ( 'NONE',  ( 0.06250000000000047184, 4.709284318545643444, -0.3599999999999999867 ) ) ;
#132 = EDGE_CURVE ( 'NONE', #11, #370, #339, .T. ) ;
#133 = ORIENTED_EDGE ( 'NONE', *, *, #248, .T. ) ;
#134 = ORGANIZATION ( 'UNSPECIFIED', 'UNSPECIFIED', '' ) ;
#135 = LINE ( 'NONE', #137, #67 ) ;
#136 = ORIENTED_EDGE ( 'NONE', *, *, #132, .F. ) ;
#137 = CARTESIAN_POINT ( 'NONE',  ( 0.06250000000000047184, 4.709284318545643444, 0.000000000000000000 ) ) ;
#138 = ORIENTED_EDGE ( 'NONE', *, *, #323, .T. ) ;
#139 = ORIENTED_EDGE ( 'NONE', *, *, #313, .T. ) ;
#140 = AXIS2_PLACEMENT_3D ( 'NONE', #94, #325, #369 ) ;
#141 = PERSON_AND_ORGANIZATION ( #87, #134 ) ;
#142 = ORIENTED_EDGE ( 'NONE', *, *, #357, .F. ) ;
#143 = AXIS2_PLACEMENT_3D ( 'NONE', #410, #18, #21 ) ;
#144 = CALENDAR_DATE ( 2022, 26, 4 ) ;
#145 = CARTESIAN_POINT ( 'NONE',  ( 1.872500000000000053, 0.5629999999999999449, -0.3599999999999999867 ) ) ;
#146 = SECURITY_CLASSIFICATION_LEVEL ( 'unclassified' ) ;
#147 = DIRECTION ( 'NONE',  ( -0.000000000000000000, -0.000000000000000000, 1.000000000000000000 ) ) ;
#148 = LOCAL_TIME ( 16, 1, 30.00000000000000000, #243 ) ;
#149 = DIRECTION ( 'NONE',  ( 0.000000000000000000, 0.000000000000000000, 1.000000000000000000 ) ) ;
#150 = EDGE_CURVE ( 'NONE', #233, #7, #407, .T. ) ;
#151 = COORDINATED_UNIVERSAL_TIME_OFFSET ( 6, 0, .BEHIND. ) ;
#152 = VERTEX_POINT ( 'NONE', #255 ) ;
#153 = PRODUCT_RELATED_PRODUCT_CATEGORY ( 'detail', '', ( #104 ) ) ;
#154 = FACE_OUTER_BOUND ( 'NONE', #399, .T. ) ;
#155 = VECTOR ( 'NONE', #398, 39.37007874015748143 ) ;
#156 = LINE ( 'NONE', #351, #305 ) ;
#157 = DIRECTION ( 'NONE',  ( 0.000000000000000000, 0.000000000000000000, 1.000000000000000000 ) ) ;
#158 = CARTESIAN_POINT ( 'NONE',  ( 0.4654999999999999694, 1.750000000000000000, -0.3599999999999999867 ) ) ;
#159 = DIRECTION ( 'NONE',  ( 0.000000000000000000, 0.000000000000000000, 1.000000000000000000 ) ) ;
#160 = ADVANCED_FACE ( 'NONE', ( #93 ), #186, .F. ) ;
#161 = CIRCLE ( 'NONE', #43, 0.1905000000000000582 ) ;
#162 = DIRECTION ( 'NONE',  ( 1.000000000000000000, 0.000000000000000000, 0.000000000000000000 ) ) ;
#163 = DIRECTION ( 'NONE',  ( 1.000000000000000000, 0.000000000000000000, 0.000000000000000000 ) ) ;
#164 = EDGE_LOOP ( 'NONE', ( #115, #297, #195, #108 ) ) ;
#165 = CARTESIAN_POINT ( 'NONE',  ( 0.8465000000000001412, 1.750000000000000000, 0.000000000000000000 ) ) ;
#166 = ORIENTED_EDGE ( 'NONE', *, *, #266, .F. ) ;
#167 = CARTESIAN_POINT ( 'NONE',  ( 0.000000000000000000, 0.000000000000000000, 0.000000000000000000 ) ) ;
#168 = VERTEX_POINT ( 'NONE', #386 ) ;
#169 = CARTESIAN_POINT ( 'NONE',  ( 2.063000000000000167, 0.5629999999999999449, -0.3599999999999999867 ) ) ;
#170 = ORIENTED_EDGE ( 'NONE', *, *, #248, .F. ) ;
#171 = ORIENTED_EDGE ( 'NONE', *, *, #276, .T. ) ;
#172 = DIRECTION ( 'NONE',  ( 1.000000000000000000, 0.000000000000000000, 0.000000000000000000 ) ) ;
#173 = CIRCLE ( 'NONE', #84, 4.656000000000000583 ) ;
#174 = APPROVAL ( #80, 'UNSPECIFIED' ) ;
#175 = APPROVAL_ROLE ( '' ) ;
#176 = CARTESIAN_POINT ( 'NONE',  ( 4.366999999999999993, 6.483999999999999986, 0.000000000000000000 ) ) ;
#177 = PERSON_AND_ORGANIZATION_ROLE ( 'design_supplier' ) ;
#178 = CARTESIAN_POINT ( 'NONE',  ( 2.500000000000000000, 2.218716070412193098, 0.000000000000000000 ) ) ;
#179 = DIRECTION ( 'NONE',  ( 0.000000000000000000, -0.000000000000000000, -1.000000000000000000 ) ) ;
#180 = FACE_OUTER_BOUND ( 'NONE', #361, .T. ) ;
#181 = DIRECTION ( 'NONE',  ( 0.000000000000000000, 0.000000000000000000, 1.000000000000000000 ) ) ;
#182 = ADVANCED_FACE ( 'NONE', ( #222, #130, #221 ), #220, .F. ) ;
#183 = APPROVAL ( #119, 'UNSPECIFIED' ) ;
#184 = APPROVAL_PERSON_ORGANIZATION ( #275, #183, #175 ) ;
#185 = CARTESIAN_POINT ( 'NONE',  ( 0.000000000000000000, 0.000000000000000000, -0.3599999999999999867 ) ) ;
#186 = CYLINDRICAL_SURFACE ( 'NONE', #228, 0.1905000000000000582 ) ;
#187 = EDGE_CURVE ( 'NONE', #331, #194, #161, .T. ) ;
#188 = DIRECTION ( 'NONE',  ( 0.000000000000000000, 0.000000000000000000, 1.000000000000000000 ) ) ;
#189 = DIRECTION ( 'NONE',  ( -0.000000000000000000, -0.000000000000000000, 1.000000000000000000 ) ) ;
#190 = CIRCLE ( 'NONE', #34, 4.656000000000000583 ) ;
#191 = CC_DESIGN_PERSON_AND_ORGANIZATION_ASSIGNMENT ( #414, #78, ( #104 ) ) ;
#192 = VECTOR ( 'NONE', #352, 39.37007874015748143 ) ;
#193 = CARTESIAN_POINT ( 'NONE',  ( 0.000000000000000000, 0.000000000000000000, 0.000000000000000000 ) ) ;
#194 = VERTEX_POINT ( 'NONE', #158 ) ;
#195 = ORIENTED_EDGE ( 'NONE', *, *, #27, .T. ) ;
#196 = ADVANCED_FACE ( 'NONE', ( #322 ), #24, .T. ) ;
#197 = LENGTH_MEASURE_WITH_UNIT ( LENGTH_MEASURE( 0.02539999999999999897 ), #400 );
#198 = ORIENTED_EDGE ( 'NONE', *, *, #345, .F. ) ;
#199 = VECTOR ( 'NONE', #254, 39.37007874015748143 ) ;
#200 = VECTOR ( 'NONE', #283, 39.37007874015748854 ) ;
#201 = LINE ( 'NONE', #363, #23 ) ;
#202 = ORIENTED_EDGE ( 'NONE', *, *, #422, .F. ) ;
#203 =( NAMED_UNIT ( * ) SI_UNIT ( $, .STERADIAN. ) SOLID_ANGLE_UNIT ( ) );
#204 = ORIENTED_EDGE ( 'NONE', *, *, #224, .F. ) ;
#205 = ORIENTED_EDGE ( 'NONE', *, *, #353, .T. ) ;
#206 = FACE_OUTER_BOUND ( 'NONE', #164, .T. ) ;
#207 = VECTOR ( 'NONE', #257, 39.37007874015748143 ) ;
#208 = DATE_AND_TIME ( #144, #148 ) ;
#209 = CARTESIAN_POINT ( 'NONE',  ( 2.253500000000000281, 0.5629999999999999449, -0.3599999999999999867 ) ) ;
#210 = ORIENTED_EDGE ( 'NONE', *, *, #231, .T. ) ;
#211 = CALENDAR_DATE ( 2022, 26, 4 ) ;
#212 = CARTESIAN_POINT ( 'NONE',  ( 0.06249999999999967387, 4.709284318545643444, -0.3599999999999999867 ) ) ;
#213 = PERSON_AND_ORGANIZATION_ROLE ( 'classification_officer' ) ;
#214 = ORIENTED_EDGE ( 'NONE', *, *, #357, .T. ) ;
#215 = AXIS2_PLACEMENT_3D ( 'NONE', #169, #35, #97 ) ;
#216 = CALENDAR_DATE ( 2022, 26, 4 ) ;
#217 = CYLINDRICAL_SURFACE ( 'NONE', #324, 4.656000000000000583 ) ;
#218 = VECTOR ( 'NONE', #25, 39.37007874015748143 ) ;
#219 = DIRECTION ( 'NONE',  ( 0.000000000000000000, 0.000000000000000000, 1.000000000000000000 ) ) ;
#220 = PLANE ( 'NONE',  #99 ) ;
#221 = FACE_OUTER_BOUND ( 'NONE', #394, .T. ) ;
#222 = FACE_BOUND ( 'NONE', #33, .T. ) ;
#223 = DIRECTION ( 'NONE',  ( -0.5000000000000022204, -0.8660254037844373753, 0.000000000000000000 ) ) ;
#224 = EDGE_CURVE ( 'NONE', #396, #98, #392, .T. ) ;
#225 = CARTESIAN_POINT ( 'NONE',  ( 0.000000000000000000, 0.000000000000000000, 0.000000000000000000 ) ) ;
#226 = LOCAL_TIME ( 16, 1, 30.00000000000000000, #378 ) ;
#227 = ORIENTED_EDGE ( 'NONE', *, *, #372, .T. ) ;
#228 = AXIS2_PLACEMENT_3D ( 'NONE', #315, #189, #355 ) ;
#229 = CYLINDRICAL_SURFACE ( 'NONE', #296, 0.1905000000000000582 ) ;
#230 = ORIENTED_EDGE ( 'NONE', *, *, #319, .F. ) ;
#231 = EDGE_CURVE ( 'NONE', #260, #7, #320, .T. ) ;
#232 = CARTESIAN_POINT ( 'NONE',  ( 0.000000000000000000, 0.000000000000000000, -0.3599999999999999867 ) ) ;
#233 = VERTEX_POINT ( 'NONE', #290 ) ;
#234 = CARTESIAN_POINT ( 'NONE',  ( 0.000000000000000000, 4.601031143072588314, -0.3599999999999999867 ) ) ;
#235 = ORIENTED_EDGE ( 'NONE', *, *, #391, .F. ) ;
#236 = AXIS2_PLACEMENT_3D ( 'NONE', #356, #188, #125 ) ;
#237 = DESIGN_CONTEXT ( 'detailed design', #261, 'design' ) ;
#238 = EDGE_CURVE ( 'NONE', #331, #370, #418, .T. ) ;
#239 = CYLINDRICAL_SURFACE ( 'NONE', #140, 0.1905000000000000582 ) ;
#240 = ORIENTED_EDGE ( 'NONE', *, *, #187, .F. ) ;
#241 = CC_DESIGN_PERSON_AND_ORGANIZATION_ASSIGNMENT ( #16, #177, ( #316 ) ) ;
#242 = DIRECTION ( 'NONE',  ( 1.000000000000000000, 0.000000000000000000, 0.000000000000000000 ) ) ;
#243 = COORDINATED_UNIVERSAL_TIME_OFFSET ( 6, 0, .BEHIND. ) ;
#244 = CARTESIAN_POINT ( 'NONE',  ( 0.06249999999999967387, 4.709284318545643444, 0.000000000000000000 ) ) ;
#245 = EDGE_LOOP ( 'NONE', ( #312, #106, #408, #374 ) ) ;
#246 = APPROVAL_DATE_TIME ( #303, #302 ) ;
#247 = PLANE ( 'NONE',  #271 ) ;
#248 = EDGE_CURVE ( 'NONE', #98, #406, #390, .T. ) ;
#249 = CARTESIAN_POINT ( 'NONE',  ( 2.500000000000000000, 0.000000000000000000, -0.3599999999999999867 ) ) ;
#250 = PERSON_AND_ORGANIZATION ( #87, #134 ) ;
#251 = ORIENTED_EDGE ( 'NONE', *, *, #10, .F. ) ;
#252 = CIRCLE ( 'NONE', #17, 0.1905000000000000582 ) ;
#253 = ADVANCED_FACE ( 'NONE', ( #28, #258, #92 ), #22, .T. ) ;
#254 = DIRECTION ( 'NONE',  ( 0.000000000000000000, 0.000000000000000000, 1.000000000000000000 ) ) ;
#255 = CARTESIAN_POINT ( 'NONE',  ( 0.000000000000000000, 4.601031143072588314, 0.000000000000000000 ) ) ;
#256 = DIRECTION ( 'NONE',  ( 1.000000000000000000, 0.000000000000000000, 0.000000000000000000 ) ) ;
#257 = DIRECTION ( 'NONE',  ( -0.000000000000000000, -0.000000000000000000, 1.000000000000000000 ) ) ;
#258 = FACE_BOUND ( 'NONE', #9, .T. ) ;
#259 = CARTESIAN_POINT ( 'NONE',  ( 0.000000000000000000, 0.000000000000000000, 0.000000000000000000 ) ) ;
#260 = VERTEX_POINT ( 'NONE', #321 ) ;
#261 = APPLICATION_CONTEXT ( 'configuration controlled 3d designs of mechanical parts and assemblies' ) ;
#262 =( NAMED_UNIT ( * ) PLANE_ANGLE_UNIT ( ) SI_UNIT ( $, .RADIAN. ) );
#263 = EDGE_LOOP ( 'NONE', ( #272, #314 ) ) ;
#264 = LINE ( 'NONE', #232, #49 ) ;
#265 = ORIENTED_EDGE ( 'NONE', *, *, #422, .T. ) ;
#266 = EDGE_CURVE ( 'NONE', #396, #152, #26, .T. ) ;
#267 = EDGE_LOOP ( 'NONE', ( #230, #251 ) ) ;
#268 = APPROVAL_PERSON_ORGANIZATION ( #12, #174, #273 ) ;
#269 = ORIENTED_EDGE ( 'NONE', *, *, #31, .F. ) ;
#270 = EDGE_CURVE ( 'NONE', #101, #396, #292, .T. ) ;
#271 = AXIS2_PLACEMENT_3D ( 'NONE', #249, #48, #281 ) ;
#272 = ORIENTED_EDGE ( 'NONE', *, *, #187, .T. ) ;
#273 = APPROVAL_ROLE ( '' ) ;
#274 = CARTESIAN_POINT ( 'NONE',  ( 0.000000000000000000, 0.000000000000000000, -0.3599999999999999867 ) ) ;
#275 = PERSON_AND_ORGANIZATION ( #87, #134 ) ;
#276 = EDGE_CURVE ( 'NONE', #68, #66, #96, .T. ) ;
#277 = CYLINDRICAL_SURFACE ( 'NONE', #288, 0.1905000000000000582 ) ;
#278 = CC_DESIGN_APPROVAL ( #183, ( #377 ) ) ;
#279 = CARTESIAN_POINT ( 'NONE',  ( 1.872500000000000053, 0.5629999999999999449, -0.3599999999999999867 ) ) ;
#280 = APPROVAL_ROLE ( '' ) ;
#281 = DIRECTION ( 'NONE',  ( 0.000000000000000000, 0.000000000000000000, -1.000000000000000000 ) ) ;
#282 = EDGE_CURVE ( 'NONE', #101, #39, #358, .T. ) ;
#283 = DIRECTION ( 'NONE',  ( -0.5000000000000022204, -0.8660254037844373753, 0.000000000000000000 ) ) ;
#284 = MANIFOLD_SOLID_BREP ( 'HOLES', #91 ) ;
#285 = AXIS2_PLACEMENT_3D ( 'NONE', #1, #300, #295 ) ;
#286 = DIRECTION ( 'NONE',  ( 0.000000000000000000, 0.000000000000000000, 1.000000000000000000 ) ) ;
#287 = CIRCLE ( 'NONE', #76, 0.1905000000000000582 ) ;
#288 = AXIS2_PLACEMENT_3D ( 'NONE', #348, #120, #242 ) ;
#289 = DIRECTION ( 'NONE',  ( 0.000000000000000000, 0.000000000000000000, 1.000000000000000000 ) ) ;
#290 = CARTESIAN_POINT ( 'NONE',  ( 2.500000000000000000, 2.218716070412193098, -0.3599999999999999867 ) ) ;
#291 = CC_DESIGN_SECURITY_CLASSIFICATION ( #377, ( #316 ) ) ;
#292 = LINE ( 'NONE', #131, #200 ) ;
#293 = DIRECTION ( 'NONE',  ( 1.000000000000000000, 0.000000000000000000, 0.000000000000000000 ) ) ;
#294 = ORIENTED_EDGE ( 'NONE', *, *, #224, .T. ) ;
#295 = DIRECTION ( 'NONE',  ( 1.000000000000000000, 0.000000000000000000, 0.000000000000000000 ) ) ;
#296 = AXIS2_PLACEMENT_3D ( 'NONE', #69, #6, #32 ) ;
#297 = ORIENTED_EDGE ( 'NONE', *, *, #276, .F. ) ;
#298 = FACE_OUTER_BOUND ( 'NONE', #95, .T. ) ;
#299 = ORIENTED_EDGE ( 'NONE', *, *, #238, .F. ) ;
#300 = DIRECTION ( 'NONE',  ( 0.000000000000000000, 0.000000000000000000, 1.000000000000000000 ) ) ;
#301 = EDGE_LOOP ( 'NONE', ( #269, #366, #138, #40 ) ) ;
#302 = APPROVAL ( #382, 'UNSPECIFIED' ) ;
#303 = DATE_AND_TIME ( #211, #59 ) ;
#304 = ORIENTED_EDGE ( 'NONE', *, *, #4, .T. ) ;
#305 = VECTOR ( 'NONE', #52, 39.37007874015748143 ) ;
#306 = DIRECTION ( 'NONE',  ( -0.000000000000000000, -0.000000000000000000, -1.000000000000000000 ) ) ;
#307 = DATE_AND_TIME ( #117, #3 ) ;
#308 = CC_DESIGN_DATE_AND_TIME_ASSIGNMENT ( #74, #44, ( #377 ) ) ;
#309 = CARTESIAN_POINT ( 'NONE',  ( 2.253500000000000281, 0.5629999999999999449, 0.000000000000000000 ) ) ;
#310 = COORDINATED_UNIVERSAL_TIME_OFFSET ( 6, 0, .BEHIND. ) ;
#311 = DIRECTION ( 'NONE',  ( 1.000000000000000000, 0.000000000000000000, 0.000000000000000000 ) ) ;
#312 = ORIENTED_EDGE ( 'NONE', *, *, #353, .F. ) ;
#313 = EDGE_CURVE ( 'NONE', #194, #11, #156, .T. ) ;
#314 = ORIENTED_EDGE ( 'NONE', *, *, #103, .T. ) ;
#315 = CARTESIAN_POINT ( 'NONE',  ( 0.6560000000000000275, 1.750000000000000000, -0.3599999999999999867 ) ) ;
#316 = PRODUCT_DEFINITION_FORMATION_WITH_SPECIFIED_SOURCE ( 'ANY', '', #104, .NOT_KNOWN. ) ;
#317 = CARTESIAN_POINT ( 'NONE',  ( 4.366999999999999993, 6.483999999999999986, -0.3599999999999999867 ) ) ;
#318 = VECTOR ( 'NONE', #51, 39.37007874015748143 ) ;
#319 = EDGE_CURVE ( 'NONE', #5, #334, #252, .T. ) ;
#320 = LINE ( 'NONE', #421, #192 ) ;
#321 = CARTESIAN_POINT ( 'NONE',  ( 2.500000000000000000, 0.000000000000000000, 0.000000000000000000 ) ) ;
#322 = FACE_OUTER_BOUND ( 'NONE', #245, .T. ) ;
#323 = EDGE_CURVE ( 'NONE', #233, #101, #190, .T. ) ;
#324 = AXIS2_PLACEMENT_3D ( 'NONE', #335, #149, #311 ) ;
#325 = DIRECTION ( 'NONE',  ( -0.000000000000000000, -0.000000000000000000, 1.000000000000000000 ) ) ;
#326 = ORIENTED_EDGE ( 'NONE', *, *, #150, .T. ) ;
#327 = LINE ( 'NONE', #225, #155 ) ;
#328 = EDGE_LOOP ( 'NONE', ( #71, #240, #368, #265 ) ) ;
#329 = ORIENTED_EDGE ( 'NONE', *, *, #323, .F. ) ;
#330 = DIRECTION ( 'NONE',  ( 1.000000000000000000, 0.000000000000000000, 0.000000000000000000 ) ) ;
#331 = VERTEX_POINT ( 'NONE', #37 ) ;
#332 = FACE_OUTER_BOUND ( 'NONE', #328, .T. ) ;
#333 = ORIENTED_EDGE ( 'NONE', *, *, #10, .T. ) ;
#334 = VERTEX_POINT ( 'NONE', #395 ) ;
#335 = CARTESIAN_POINT ( 'NONE',  ( 4.366999999999999993, 6.483999999999999986, -0.3599999999999999867 ) ) ;
#336 = AXIS2_PLACEMENT_3D ( 'NONE', #88, #157, #85 ) ;
#337 = EDGE_LOOP ( 'NONE', ( #30, #139, #111, #299 ) ) ;
#338 = APPROVAL_DATE_TIME ( #342, #174 ) ;
#339 = CIRCLE ( 'NONE', #107, 0.1905000000000000582 ) ;
#340 = LINE ( 'NONE', #279, #347 ) ;
#341 = EDGE_LOOP ( 'NONE', ( #364, #235, #379, #326 ) ) ;
#342 = DATE_AND_TIME ( #112, #124 ) ;
#343 = DIRECTION ( 'NONE',  ( 0.000000000000000000, 0.000000000000000000, 1.000000000000000000 ) ) ;
#344 = PRODUCT_DEFINITION_SHAPE ( 'NONE', 'NONE',  #383 ) ;
#345 = EDGE_CURVE ( 'NONE', #406, #260, #100, .T. ) ;
#346 = DIRECTION ( 'NONE',  ( 1.000000000000000000, 0.000000000000000000, 0.000000000000000000 ) ) ;
#347 = VECTOR ( 'NONE', #147, 39.37007874015748143 ) ;
#348 = CARTESIAN_POINT ( 'NONE',  ( 2.063000000000000167, 0.5629999999999999449, -0.3599999999999999867 ) ) ;
#349 = VECTOR ( 'NONE', #181, 39.37007874015748143 ) ;
#350 = ADVANCED_FACE ( 'NONE', ( #332 ), #239, .F. ) ;
#351 = CARTESIAN_POINT ( 'NONE',  ( 0.4654999999999999694, 1.750000000000000000, -0.3599999999999999867 ) ) ;
#352 = DIRECTION ( 'NONE',  ( 0.000000000000000000, 1.000000000000000000, 0.000000000000000000 ) ) ;
#353 = EDGE_CURVE ( 'NONE', #39, #152, #135, .T. ) ;
#354 = CC_DESIGN_DATE_AND_TIME_ASSIGNMENT ( #208, #109, ( #383 ) ) ;
#355 = DIRECTION ( 'NONE',  ( 1.000000000000000000, 0.000000000000000000, 0.000000000000000000 ) ) ;
#356 = CARTESIAN_POINT ( 'NONE',  ( 4.366999999999999993, 6.483999999999999986, 0.000000000000000000 ) ) ;
#357 = EDGE_CURVE ( 'NONE', #66, #68, #41, .T. ) ;
#358 = LINE ( 'NONE', #416, #199 ) ;
#359 = CC_DESIGN_APPROVAL ( #302, ( #316 ) ) ;
#360 = APPLICATION_PROTOCOL_DEFINITION ( 'international standard', 'config_control_design', 1994, #114 ) ;
#361 = EDGE_LOOP ( 'NONE', ( #75, #166, #294, #133 ) ) ;
#362 = VECTOR ( 'NONE', #123, 39.37007874015748143 ) ;
#363 = CARTESIAN_POINT ( 'NONE',  ( 2.500000000000000000, 0.000000000000000000, -0.3599999999999999867 ) ) ;
#364 = ORIENTED_EDGE ( 'NONE', *, *, #231, .F. ) ;
#365 = DIRECTION ( 'NONE',  ( -0.000000000000000000, -0.000000000000000000, -1.000000000000000000 ) ) ;
#366 = ORIENTED_EDGE ( 'NONE', *, *, #150, .F. ) ;
#367 = ADVANCED_FACE ( 'NONE', ( #298 ), #229, .F. ) ;
#368 = ORIENTED_EDGE ( 'NONE', *, *, #238, .T. ) ;
#369 = DIRECTION ( 'NONE',  ( 1.000000000000000000, 0.000000000000000000, 0.000000000000000000 ) ) ;
#370 = VERTEX_POINT ( 'NONE', #165 ) ;
#371 = ORIENTED_EDGE ( 'NONE', *, *, #27, .F. ) ;
#372 = EDGE_CURVE ( 'NONE', #152, #406, #327, .T. ) ;
#373 = CARTESIAN_POINT ( 'NONE',  ( 0.6560000000000000275, 1.750000000000000000, 0.000000000000000000 ) ) ;
#374 = ORIENTED_EDGE ( 'NONE', *, *, #266, .T. ) ;
#375 = PERSON_AND_ORGANIZATION_ROLE ( 'creator' ) ;
#376 = CARTESIAN_POINT ( 'NONE',  ( 2.253500000000000281, 0.5629999999999999449, -0.3599999999999999867 ) ) ;
#377 = SECURITY_CLASSIFICATION ( '', '', #146 ) ;
#378 = COORDINATED_UNIVERSAL_TIME_OFFSET ( 6, 0, .BEHIND. ) ;
#379 = ORIENTED_EDGE ( 'NONE', *, *, #129, .T. ) ;
#380 = PERSON_AND_ORGANIZATION ( #87, #134 ) ;
#381 = CARTESIAN_POINT ( 'NONE',  ( 0.6560000000000000275, 1.750000000000000000, -0.3599999999999999867 ) ) ;
#382 = APPROVAL_STATUS ( 'not_yet_approved' ) ;
#383 = PRODUCT_DEFINITION ( 'UNKNOWN', '', #316, #237 ) ;
#384 = CARTESIAN_POINT ( 'NONE',  ( 0.4654999999999999694, 1.750000000000000000, 0.000000000000000000 ) ) ;
#385 = APPROVAL_PERSON_ORGANIZATION ( #380, #302, #280 ) ;
#386 = CARTESIAN_POINT ( 'NONE',  ( 2.500000000000000000, 0.000000000000000000, -0.3599999999999999867 ) ) ;
#387 = CARTESIAN_POINT ( 'NONE',  ( 0.6560000000000000275, 1.750000000000000000, -0.3599999999999999867 ) ) ;
#388 = CC_DESIGN_PERSON_AND_ORGANIZATION_ASSIGNMENT ( #250, #375, ( #316 ) ) ;
#389 = CARTESIAN_POINT ( 'NONE',  ( 4.366999999999999993, 6.483999999999999986, -0.3599999999999999867 ) ) ;
#390 = LINE ( 'NONE', #127, #54 ) ;
#391 = EDGE_CURVE ( 'NONE', #168, #260, #201, .T. ) ;
#392 = LINE ( 'NONE', #185, #218 ) ;
#393 =( GEOMETRIC_REPRESENTATION_CONTEXT ( 3 ) GLOBAL_UNCERTAINTY_ASSIGNED_CONTEXT ( ( #56 ) ) GLOBAL_UNIT_ASSIGNED_CONTEXT ( ( #8, #262, #203 ) ) REPRESENTATION_CONTEXT ( 'NONE', 'WORKASPACE' ) );
#394 = EDGE_LOOP ( 'NONE', ( #204, #60, #329, #102, #36 ) ) ;
#395 = CARTESIAN_POINT ( 'NONE',  ( 1.872500000000000053, 0.5629999999999999449, 0.000000000000000000 ) ) ;
#396 = VERTEX_POINT ( 'NONE', #234 ) ;
#397 = EDGE_CURVE ( 'NONE', #98, #168, #264, .T. ) ;
#398 = DIRECTION ( 'NONE',  ( -0.000000000000000000, -1.000000000000000000, -0.000000000000000000 ) ) ;
#399 = EDGE_LOOP ( 'NONE', ( #198, #170, #2, #64 ) ) ;
#400 =( LENGTH_UNIT ( ) NAMED_UNIT ( * ) SI_UNIT ( $, .METRE. ) );
#401 = EDGE_LOOP ( 'NONE', ( #227, #20, #210, #70, #205 ) ) ;
#402 = AXIS2_PLACEMENT_3D ( 'NONE', #58, #86, #223 ) ;
#403 = COORDINATED_UNIVERSAL_TIME_OFFSET ( 6, 0, .BEHIND. ) ;
#404 = ADVANCED_BREP_SHAPE_REPRESENTATION ( '4159773_8', ( #284, #116 ), #393 ) ;
#405 = DIRECTION ( 'NONE',  ( 0.000000000000000000, -1.000000000000000000, 0.000000000000000000 ) ) ;
#406 = VERTEX_POINT ( 'NONE', #167 ) ;
#407 = LINE ( 'NONE', #113, #349 ) ;
#408 = ORIENTED_EDGE ( 'NONE', *, *, #270, .T. ) ;
#409 = SHAPE_DEFINITION_REPRESENTATION ( #344, #404 ) ;
#410 = CARTESIAN_POINT ( 'NONE',  ( 0.000000000000000000, 0.000000000000000000, -0.3599999999999999867 ) ) ;
#411 = VECTOR ( 'NONE', #330, 39.37007874015748143 ) ;
#412 = PERSON_AND_ORGANIZATION ( #87, #134 ) ;
#413 = PLANE ( 'NONE',  #143 ) ;
#414 = PERSON_AND_ORGANIZATION ( #87, #134 ) ;
#415 = LINE ( 'NONE', #110, #362 ) ;
#416 = CARTESIAN_POINT ( 'NONE',  ( 0.06249999999999967387, 4.709284318545643444, -0.3599999999999999867 ) ) ;
#417 = CIRCLE ( 'NONE', #285, 0.1905000000000000582 ) ;
#418 = LINE ( 'NONE', #423, #207 ) ;
#419 = CIRCLE ( 'NONE', #126, 0.1905000000000000582 ) ;
#420 = CARTESIAN_POINT ( 'NONE',  ( 2.063000000000000167, 0.5629999999999999449, 0.000000000000000000 ) ) ;
#421 = CARTESIAN_POINT ( 'NONE',  ( 2.500000000000000000, 0.000000000000000000, 0.000000000000000000 ) ) ;
#422 = EDGE_CURVE ( 'NONE', #370, #11, #417, .T. ) ;
#423 = CARTESIAN_POINT ( 'NONE',  ( 0.8465000000000001412, 1.750000000000000000, -0.3599999999999999867 ) ) ;
ENDSEC;
END-ISO-10303-21;
