ISO-10303-21;
HEADER;
FILE_DESCRIPTION (( 'STEP AP203' ),
    '1' );
FILE_NAME ('395WICK.STEP',
    '2022-04-27T14:08:02',
    ( '' ),
    ( '' ),
    'SwSTEP 2.0',
    'SolidWorks 2020',
    '' );
FILE_SCHEMA (( 'CONFIG_CONTROL_DESIGN' ));
ENDSEC;

DATA;
#1 = DIMENSIONAL_EXPONENTS ( 1.000000000000000000, 0.000000000000000000, 0.000000000000000000, 0.000000000000000000, 0.000000000000000000, 0.000000000000000000, 0.000000000000000000 ) ;
#2 = CARTESIAN_POINT ( 'NONE',  ( 0.000000000000000000, 0.000000000000000000, 0.000000000000000000 ) ) ;
#3 = PLANE ( 'NONE',  #34 ) ;
#4 = CARTESIAN_POINT ( 'NONE',  ( 0.000000000000000000, 1.375000000000000000, -0.2399999999999999911 ) ) ;
#5 = CARTESIAN_POINT ( 'NONE',  ( 2.000000000000000000, 1.375000000000000000, -0.2399999999999999911 ) ) ;
#6 = AXIS2_PLACEMENT_3D ( 'NONE', #164, #96, #78 ) ;
#7 = MECHANICAL_CONTEXT ( 'NONE', #75, 'mechanical' ) ;
#8 = FACE_OUTER_BOUND ( 'NONE', #84, .T. ) ;
#9 = ORIENTED_EDGE ( 'NONE', *, *, #166, .F. ) ;
#10 = VERTEX_POINT ( 'NONE', #136 ) ;
#11 = ORIENTED_EDGE ( 'NONE', *, *, #240, .T. ) ;
#12 = DIRECTION ( 'NONE',  ( 0.000000000000000000, 0.000000000000000000, 1.000000000000000000 ) ) ;
#13 = COORDINATED_UNIVERSAL_TIME_OFFSET ( 6, 0, .BEHIND. ) ;
#14 = COORDINATED_UNIVERSAL_TIME_OFFSET ( 6, 0, .BEHIND. ) ;
#15 = EDGE_CURVE ( 'NONE', #192, #208, #102, .T. ) ;
#16 = VECTOR ( 'NONE', #202, 39.37007874015748143 ) ;
#17 = CC_DESIGN_APPROVAL ( #145, ( #31 ) ) ;
#18 = FACE_OUTER_BOUND ( 'NONE', #171, .T. ) ;
#19 = LINE ( 'NONE', #76, #194 ) ;
#20 = CC_DESIGN_PERSON_AND_ORGANIZATION_ASSIGNMENT ( #139, #198, ( #113 ) ) ;
#21 = VECTOR ( 'NONE', #114, 39.37007874015748143 ) ;
#22 = PRODUCT_DEFINITION_SHAPE ( 'NONE', 'NONE',  #207 ) ;
#23 = DIRECTION ( 'NONE',  ( 0.000000000000000000, 1.000000000000000000, 0.000000000000000000 ) ) ;
#24 = APPROVAL_ROLE ( '' ) ;
#25 = FACE_OUTER_BOUND ( 'NONE', #28, .T. ) ;
#26 = EDGE_LOOP ( 'NONE', ( #203, #124, #172, #235 ) ) ;
#27 = CARTESIAN_POINT ( 'NONE',  ( 0.000000000000000000, 1.375000000000000000, -0.2399999999999999911 ) ) ;
#28 = EDGE_LOOP ( 'NONE', ( #122, #226, #134, #231 ) ) ;
#29 = EDGE_LOOP ( 'NONE', ( #174, #104, #157, #50 ) ) ;
#30 = APPROVAL_STATUS ( 'not_yet_approved' ) ;
#31 = SECURITY_CLASSIFICATION ( '', '', #227 ) ;
#32 = CC_DESIGN_PERSON_AND_ORGANIZATION_ASSIGNMENT ( #106, #154, ( #60 ) ) ;
#33 = VECTOR ( 'NONE', #87, 39.37007874015748143 ) ;
#34 = AXIS2_PLACEMENT_3D ( 'NONE', #217, #57, #129 ) ;
#35 = CARTESIAN_POINT ( 'NONE',  ( 0.000000000000000000, 0.000000000000000000, 0.000000000000000000 ) ) ;
#36 = LINE ( 'NONE', #73, #195 ) ;
#37 = EDGE_CURVE ( 'NONE', #68, #44, #46, .T. ) ;
#38 = ADVANCED_FACE ( 'NONE', ( #140 ), #160, .T. ) ;
#39 =( GEOMETRIC_REPRESENTATION_CONTEXT ( 3 ) GLOBAL_UNCERTAINTY_ASSIGNED_CONTEXT ( ( #111 ) ) GLOBAL_UNIT_ASSIGNED_CONTEXT ( ( #70, #53, #115 ) ) REPRESENTATION_CONTEXT ( 'NONE', 'WORKASPACE' ) );
#40 = LOCAL_TIME ( 9, 8, 2.000000000000000000, #14 ) ;
#41 = DIRECTION ( 'NONE',  ( 0.000000000000000000, -0.000000000000000000, 1.000000000000000000 ) ) ;
#42 = DIRECTION ( 'NONE',  ( -0.000000000000000000, -1.000000000000000000, -0.000000000000000000 ) ) ;
#43 = DIRECTION ( 'NONE',  ( 0.000000000000000000, -0.000000000000000000, -1.000000000000000000 ) ) ;
#44 = VERTEX_POINT ( 'NONE', #119 ) ;
#45 = CALENDAR_DATE ( 2022, 27, 4 ) ;
#46 = LINE ( 'NONE', #233, #178 ) ;
#47 = APPROVAL_DATE_TIME ( #206, #165 ) ;
#48 = ORIENTED_EDGE ( 'NONE', *, *, #190, .F. ) ;
#49 = SHAPE_DEFINITION_REPRESENTATION ( #22, #221 ) ;
#50 = ORIENTED_EDGE ( 'NONE', *, *, #240, .F. ) ;
#51 =( LENGTH_UNIT ( ) NAMED_UNIT ( * ) SI_UNIT ( $, .METRE. ) );
#52 = CARTESIAN_POINT ( 'NONE',  ( 0.000000000000000000, 0.000000000000000000, -0.2399999999999999911 ) ) ;
#53 =( NAMED_UNIT ( * ) PLANE_ANGLE_UNIT ( ) SI_UNIT ( $, .RADIAN. ) );
#54 = AXIS2_PLACEMENT_3D ( 'NONE', #200, #184, #43 ) ;
#55 = CC_DESIGN_APPROVAL ( #165, ( #207 ) ) ;
#56 = LOCAL_TIME ( 9, 8, 2.000000000000000000, #135 ) ;
#57 = DIRECTION ( 'NONE',  ( 0.000000000000000000, 0.000000000000000000, -1.000000000000000000 ) ) ;
#58 = EDGE_CURVE ( 'NONE', #105, #68, #188, .T. ) ;
#59 = CARTESIAN_POINT ( 'NONE',  ( 2.000000000000000000, 0.000000000000000000, -0.2399999999999999911 ) ) ;
#60 = PRODUCT ( '395WICK', '395WICK', '', ( #7 ) ) ;
#61 = MANIFOLD_SOLID_BREP ( 'Base-Extrude', #93 ) ;
#62 = PERSON_AND_ORGANIZATION ( #213, #97 ) ;
#63 = CARTESIAN_POINT ( 'NONE',  ( 2.000000000000000000, 1.375000000000000000, -0.2399999999999999911 ) ) ;
#64 = LINE ( 'NONE', #186, #21 ) ;
#65 = VERTEX_POINT ( 'NONE', #170 ) ;
#66 = PERSON_AND_ORGANIZATION_ROLE ( 'classification_officer' ) ;
#67 = ORIENTED_EDGE ( 'NONE', *, *, #15, .F. ) ;
#68 = VERTEX_POINT ( 'NONE', #225 ) ;
#69 = EDGE_LOOP ( 'NONE', ( #48, #9, #11, #85 ) ) ;
#70 =( CONVERSION_BASED_UNIT ( 'INCH', #143 ) LENGTH_UNIT ( ) NAMED_UNIT ( #1 ) );
#71 = APPROVAL ( #30, 'UNSPECIFIED' ) ;
#72 = APPLICATION_PROTOCOL_DEFINITION ( 'international standard', 'config_control_design', 1994, #108 ) ;
#73 = CARTESIAN_POINT ( 'NONE',  ( 0.000000000000000000, 0.000000000000000000, -0.2399999999999999911 ) ) ;
#74 = VECTOR ( 'NONE', #219, 39.37007874015748143 ) ;
#75 = APPLICATION_CONTEXT ( 'configuration controlled 3d designs of mechanical parts and assemblies' ) ;
#76 = CARTESIAN_POINT ( 'NONE',  ( 2.000000000000000000, 0.000000000000000000, -0.2399999999999999911 ) ) ;
#77 = EDGE_CURVE ( 'NONE', #10, #44, #64, .T. ) ;
#78 = DIRECTION ( 'NONE',  ( 0.000000000000000000, 0.000000000000000000, -1.000000000000000000 ) ) ;
#79 = AXIS2_PLACEMENT_3D ( 'NONE', #153, #205, #210 ) ;
#80 = DESIGN_CONTEXT ( 'detailed design', #108, 'design' ) ;
#81 = PLANE ( 'NONE',  #141 ) ;
#82 = VECTOR ( 'NONE', #147, 39.37007874015748143 ) ;
#83 = PLANE ( 'NONE',  #54 ) ;
#84 = EDGE_LOOP ( 'NONE', ( #228, #88, #155, #187 ) ) ;
#85 = ORIENTED_EDGE ( 'NONE', *, *, #15, .T. ) ;
#86 = ADVANCED_FACE ( 'NONE', ( #25 ), #117, .F. ) ;
#87 = DIRECTION ( 'NONE',  ( 1.000000000000000000, 0.000000000000000000, 0.000000000000000000 ) ) ;
#88 = ORIENTED_EDGE ( 'NONE', *, *, #101, .F. ) ;
#89 = ADVANCED_FACE ( 'NONE', ( #8 ), #81, .T. ) ;
#90 = DIRECTION ( 'NONE',  ( 0.000000000000000000, 0.000000000000000000, 1.000000000000000000 ) ) ;
#91 = CALENDAR_DATE ( 2022, 27, 4 ) ;
#92 = DIRECTION ( 'NONE',  ( 1.000000000000000000, 0.000000000000000000, 0.000000000000000000 ) ) ;
#93 = CLOSED_SHELL ( 'NONE', ( #38, #89, #176, #107, #182, #86 ) ) ;
#94 = DIRECTION ( 'NONE',  ( -0.000000000000000000, -1.000000000000000000, -0.000000000000000000 ) ) ;
#95 = CARTESIAN_POINT ( 'NONE',  ( 2.000000000000000000, 0.000000000000000000, 0.000000000000000000 ) ) ;
#96 = DIRECTION ( 'NONE',  ( 1.000000000000000000, 0.000000000000000000, 0.000000000000000000 ) ) ;
#97 = ORGANIZATION ( 'UNSPECIFIED', 'UNSPECIFIED', '' ) ;
#98 = LINE ( 'NONE', #63, #16 ) ;
#99 = DIRECTION ( 'NONE',  ( -1.000000000000000000, -0.000000000000000000, -0.000000000000000000 ) ) ;
#100 = VERTEX_POINT ( 'NONE', #150 ) ;
#101 = EDGE_CURVE ( 'NONE', #105, #10, #98, .T. ) ;
#102 = LINE ( 'NONE', #175, #236 ) ;
#103 = COORDINATED_UNIVERSAL_TIME_OFFSET ( 6, 0, .BEHIND. ) ;
#104 = ORIENTED_EDGE ( 'NONE', *, *, #58, .F. ) ;
#105 = VERTEX_POINT ( 'NONE', #5 ) ;
#106 = PERSON_AND_ORGANIZATION ( #213, #97 ) ;
#107 = ADVANCED_FACE ( 'NONE', ( #132 ), #83, .T. ) ;
#108 = APPLICATION_CONTEXT ( 'configuration controlled 3d designs of mechanical parts and assemblies' ) ;
#109 = LINE ( 'NONE', #148, #214 ) ;
#110 = DIRECTION ( 'NONE',  ( 0.000000000000000000, 0.000000000000000000, 1.000000000000000000 ) ) ;
#111 = UNCERTAINTY_MEASURE_WITH_UNIT (LENGTH_MEASURE( 1.000000000000000082E-05 ), #70, 'distance_accuracy_value', 'NONE');
#112 = AXIS2_PLACEMENT_3D ( 'NONE', #222, #152, #133 ) ;
#113 = PRODUCT_DEFINITION_FORMATION_WITH_SPECIFIED_SOURCE ( 'ANY', '', #60, .NOT_KNOWN. ) ;
#114 = DIRECTION ( 'NONE',  ( -1.000000000000000000, -0.000000000000000000, -0.000000000000000000 ) ) ;
#115 =( NAMED_UNIT ( * ) SI_UNIT ( $, .STERADIAN. ) SOLID_ANGLE_UNIT ( ) );
#116 = EDGE_CURVE ( 'NONE', #44, #65, #167, .T. ) ;
#117 = PLANE ( 'NONE',  #112 ) ;
#118 = ORIENTED_EDGE ( 'NONE', *, *, #101, .T. ) ;
#119 = CARTESIAN_POINT ( 'NONE',  ( 0.000000000000000000, 1.375000000000000000, 0.000000000000000000 ) ) ;
#120 = PERSON_AND_ORGANIZATION ( #213, #97 ) ;
#121 = VECTOR ( 'NONE', #94, 39.37007874015748143 ) ;
#122 = ORIENTED_EDGE ( 'NONE', *, *, #116, .T. ) ;
#123 = DATE_AND_TIME ( #45, #199 ) ;
#124 = ORIENTED_EDGE ( 'NONE', *, *, #37, .F. ) ;
#125 = CALENDAR_DATE ( 2022, 27, 4 ) ;
#126 = EDGE_CURVE ( 'NONE', #192, #105, #19, .T. ) ;
#127 = AXIS2_PLACEMENT_3D ( 'NONE', #201, #179, #92 ) ;
#128 = LOCAL_TIME ( 9, 8, 2.000000000000000000, #13 ) ;
#129 = DIRECTION ( 'NONE',  ( -1.000000000000000000, 0.000000000000000000, -0.000000000000000000 ) ) ;
#130 = CARTESIAN_POINT ( 'NONE',  ( 2.000000000000000000, 0.000000000000000000, 0.000000000000000000 ) ) ;
#131 = APPROVAL_DATE_TIME ( #223, #145 ) ;
#132 = FACE_OUTER_BOUND ( 'NONE', #69, .T. ) ;
#133 = DIRECTION ( 'NONE',  ( -1.000000000000000000, 0.000000000000000000, -0.000000000000000000 ) ) ;
#134 = ORIENTED_EDGE ( 'NONE', *, *, #146, .T. ) ;
#135 = COORDINATED_UNIVERSAL_TIME_OFFSET ( 6, 0, .BEHIND. ) ;
#136 = CARTESIAN_POINT ( 'NONE',  ( 2.000000000000000000, 1.375000000000000000, 0.000000000000000000 ) ) ;
#137 = PERSON_AND_ORGANIZATION ( #213, #97 ) ;
#138 = ORIENTED_EDGE ( 'NONE', *, *, #126, .T. ) ;
#139 = PERSON_AND_ORGANIZATION ( #213, #97 ) ;
#140 = FACE_OUTER_BOUND ( 'NONE', #26, .T. ) ;
#141 = AXIS2_PLACEMENT_3D ( 'NONE', #4, #23, #41 ) ;
#142 = APPROVAL_STATUS ( 'not_yet_approved' ) ;
#143 = LENGTH_MEASURE_WITH_UNIT ( LENGTH_MEASURE( 0.02539999999999999897 ), #51 );
#144 = APPROVAL_PERSON_ORGANIZATION ( #212, #71, #177 ) ;
#145 = APPROVAL ( #209, 'UNSPECIFIED' ) ;
#146 = EDGE_CURVE ( 'NONE', #208, #10, #163, .T. ) ;
#147 = DIRECTION ( 'NONE',  ( 0.000000000000000000, 1.000000000000000000, 0.000000000000000000 ) ) ;
#148 = CARTESIAN_POINT ( 'NONE',  ( 0.000000000000000000, 0.000000000000000000, -0.2399999999999999911 ) ) ;
#149 = CC_DESIGN_DATE_AND_TIME_ASSIGNMENT ( #158, #234, ( #207 ) ) ;
#150 = CARTESIAN_POINT ( 'NONE',  ( 0.000000000000000000, 0.000000000000000000, -0.2399999999999999911 ) ) ;
#151 = PERSON_AND_ORGANIZATION ( #213, #97 ) ;
#152 = DIRECTION ( 'NONE',  ( 0.000000000000000000, 0.000000000000000000, -1.000000000000000000 ) ) ;
#153 = CARTESIAN_POINT ( 'NONE',  ( 0.000000000000000000, 0.000000000000000000, -0.2399999999999999911 ) ) ;
#154 = PERSON_AND_ORGANIZATION_ROLE ( 'design_owner' ) ;
#155 = ORIENTED_EDGE ( 'NONE', *, *, #58, .T. ) ;
#156 = DATE_TIME_ROLE ( 'classification_date' ) ;
#157 = ORIENTED_EDGE ( 'NONE', *, *, #126, .F. ) ;
#158 = DATE_AND_TIME ( #173, #237 ) ;
#159 = ORIENTED_EDGE ( 'NONE', *, *, #146, .F. ) ;
#160 = PLANE ( 'NONE',  #79 ) ;
#161 = DATE_AND_TIME ( #91, #128 ) ;
#162 = CC_DESIGN_APPROVAL ( #71, ( #113 ) ) ;
#163 = LINE ( 'NONE', #95, #82 ) ;
#164 = CARTESIAN_POINT ( 'NONE',  ( 2.000000000000000000, 0.000000000000000000, -0.2399999999999999911 ) ) ;
#165 = APPROVAL ( #142, 'UNSPECIFIED' ) ;
#166 = EDGE_CURVE ( 'NONE', #100, #65, #109, .T. ) ;
#167 = LINE ( 'NONE', #2, #121 ) ;
#168 = CC_DESIGN_SECURITY_CLASSIFICATION ( #31, ( #113 ) ) ;
#169 = LINE ( 'NONE', #52, #33 ) ;
#170 = CARTESIAN_POINT ( 'NONE',  ( 0.000000000000000000, 0.000000000000000000, 0.000000000000000000 ) ) ;
#171 = EDGE_LOOP ( 'NONE', ( #159, #67, #138, #118 ) ) ;
#172 = ORIENTED_EDGE ( 'NONE', *, *, #211, .T. ) ;
#173 = CALENDAR_DATE ( 2022, 27, 4 ) ;
#174 = ORIENTED_EDGE ( 'NONE', *, *, #211, .F. ) ;
#175 = CARTESIAN_POINT ( 'NONE',  ( 2.000000000000000000, 0.000000000000000000, -0.2399999999999999911 ) ) ;
#176 = ADVANCED_FACE ( 'NONE', ( #18 ), #197, .T. ) ;
#177 = APPROVAL_ROLE ( '' ) ;
#178 = VECTOR ( 'NONE', #90, 39.37007874015748143 ) ;
#179 = DIRECTION ( 'NONE',  ( 0.000000000000000000, 0.000000000000000000, 1.000000000000000000 ) ) ;
#180 = DIRECTION ( 'NONE',  ( 0.000000000000000000, 1.000000000000000000, 0.000000000000000000 ) ) ;
#181 = CC_DESIGN_DATE_AND_TIME_ASSIGNMENT ( #123, #156, ( #31 ) ) ;
#182 = ADVANCED_FACE ( 'NONE', ( #183 ), #3, .T. ) ;
#183 = FACE_OUTER_BOUND ( 'NONE', #29, .T. ) ;
#184 = DIRECTION ( 'NONE',  ( 0.000000000000000000, -1.000000000000000000, 0.000000000000000000 ) ) ;
#185 = PERSON_AND_ORGANIZATION_ROLE ( 'creator' ) ;
#186 = CARTESIAN_POINT ( 'NONE',  ( 0.000000000000000000, 1.375000000000000000, 0.000000000000000000 ) ) ;
#187 = ORIENTED_EDGE ( 'NONE', *, *, #37, .T. ) ;
#188 = LINE ( 'NONE', #27, #218 ) ;
#189 = PERSON_AND_ORGANIZATION_ROLE ( 'creator' ) ;
#190 = EDGE_CURVE ( 'NONE', #65, #208, #196, .T. ) ;
#191 = PERSON_AND_ORGANIZATION ( #213, #97 ) ;
#192 = VERTEX_POINT ( 'NONE', #59 ) ;
#193 = APPROVAL_ROLE ( '' ) ;
#194 = VECTOR ( 'NONE', #180, 39.37007874015748143 ) ;
#195 = VECTOR ( 'NONE', #42, 39.37007874015748143 ) ;
#196 = LINE ( 'NONE', #35, #74 ) ;
#197 = PLANE ( 'NONE',  #6 ) ;
#198 = PERSON_AND_ORGANIZATION_ROLE ( 'design_supplier' ) ;
#199 = LOCAL_TIME ( 9, 8, 2.000000000000000000, #232 ) ;
#200 = CARTESIAN_POINT ( 'NONE',  ( 0.000000000000000000, 0.000000000000000000, -0.2399999999999999911 ) ) ;
#201 = CARTESIAN_POINT ( 'NONE',  ( 0.000000000000000000, 0.000000000000000000, 0.000000000000000000 ) ) ;
#202 = DIRECTION ( 'NONE',  ( 0.000000000000000000, 0.000000000000000000, 1.000000000000000000 ) ) ;
#203 = ORIENTED_EDGE ( 'NONE', *, *, #116, .F. ) ;
#204 = CALENDAR_DATE ( 2022, 27, 4 ) ;
#205 = DIRECTION ( 'NONE',  ( -1.000000000000000000, 0.000000000000000000, 0.000000000000000000 ) ) ;
#206 = DATE_AND_TIME ( #125, #40 ) ;
#207 = PRODUCT_DEFINITION ( 'UNKNOWN', '', #113, #80 ) ;
#208 = VERTEX_POINT ( 'NONE', #130 ) ;
#209 = APPROVAL_STATUS ( 'not_yet_approved' ) ;
#210 = DIRECTION ( 'NONE',  ( 0.000000000000000000, 0.000000000000000000, 1.000000000000000000 ) ) ;
#211 = EDGE_CURVE ( 'NONE', #68, #100, #36, .T. ) ;
#212 = PERSON_AND_ORGANIZATION ( #213, #97 ) ;
#213 = PERSON ( 'UNSPECIFIED', 'UNSPECIFIED', 'UNSPECIFIED', ('UNSPECIFIED'), ('UNSPECIFIED'), ('UNSPECIFIED') ) ;
#214 = VECTOR ( 'NONE', #110, 39.37007874015748143 ) ;
#215 = APPROVAL_PERSON_ORGANIZATION ( #62, #145, #24 ) ;
#216 = CC_DESIGN_PERSON_AND_ORGANIZATION_ASSIGNMENT ( #151, #66, ( #31 ) ) ;
#217 = CARTESIAN_POINT ( 'NONE',  ( 0.000000000000000000, 1.375000000000000000, -0.2399999999999999911 ) ) ;
#218 = VECTOR ( 'NONE', #99, 39.37007874015748143 ) ;
#219 = DIRECTION ( 'NONE',  ( 1.000000000000000000, 0.000000000000000000, 0.000000000000000000 ) ) ;
#220 = PRODUCT_RELATED_PRODUCT_CATEGORY ( 'detail', '', ( #60 ) ) ;
#221 = ADVANCED_BREP_SHAPE_REPRESENTATION ( '395WICK', ( #61, #127 ), #39 ) ;
#222 = CARTESIAN_POINT ( 'NONE',  ( 0.000000000000000000, 1.375000000000000000, 0.000000000000000000 ) ) ;
#223 = DATE_AND_TIME ( #204, #56 ) ;
#224 = APPROVAL_PERSON_ORGANIZATION ( #137, #165, #193 ) ;
#225 = CARTESIAN_POINT ( 'NONE',  ( 0.000000000000000000, 1.375000000000000000, -0.2399999999999999911 ) ) ;
#226 = ORIENTED_EDGE ( 'NONE', *, *, #190, .T. ) ;
#227 = SECURITY_CLASSIFICATION_LEVEL ( 'unclassified' ) ;
#228 = ORIENTED_EDGE ( 'NONE', *, *, #77, .F. ) ;
#229 = CC_DESIGN_PERSON_AND_ORGANIZATION_ASSIGNMENT ( #191, #185, ( #113 ) ) ;
#230 = APPLICATION_PROTOCOL_DEFINITION ( 'international standard', 'config_control_design', 1994, #75 ) ;
#231 = ORIENTED_EDGE ( 'NONE', *, *, #77, .T. ) ;
#232 = COORDINATED_UNIVERSAL_TIME_OFFSET ( 6, 0, .BEHIND. ) ;
#233 = CARTESIAN_POINT ( 'NONE',  ( 0.000000000000000000, 1.375000000000000000, -0.2399999999999999911 ) ) ;
#234 = DATE_TIME_ROLE ( 'creation_date' ) ;
#235 = ORIENTED_EDGE ( 'NONE', *, *, #166, .T. ) ;
#236 = VECTOR ( 'NONE', #12, 39.37007874015748143 ) ;
#237 = LOCAL_TIME ( 9, 8, 2.000000000000000000, #103 ) ;
#238 = APPROVAL_DATE_TIME ( #161, #71 ) ;
#239 = CC_DESIGN_PERSON_AND_ORGANIZATION_ASSIGNMENT ( #120, #189, ( #207 ) ) ;
#240 = EDGE_CURVE ( 'NONE', #100, #192, #169, .T. ) ;
ENDSEC;
END-ISO-10303-21;
